  0
SECTION
  2
HEADER
  9
$ACADVER
  1
AC1014
  9
$ACADMAINTVER
 70
     0
  9
$DWGCODEPAGE
  3
ANSI_1252
  9
$INSBASE
 10
0.0
 20
0.0
 30
0.0
  9
$EXTMIN
 10
-124.327038
 20
-1845.327038
 30
0.0
  9
$EXTMAX
 10
780.0
 20
115.668369
 30
2215.0
  9
$LIMMIN
 10
-1449.893312
 20
-4566.779246
  9
$LIMMAX
 10
6569.106688
 20
1202.220754
  9
$ORTHOMODE
 70
     0
  9
$REGENMODE
 70
     1
  9
$FILLMODE
 70
     1
  9
$QTEXTMODE
 70
     0
  9
$MIRRTEXT
 70
     1
  9
$DRAGMODE
 70
     2
  9
$LTSCALE
 40
10.0
  9
$OSMODE
 70
     5
  9
$ATTMODE
 70
     1
  9
$TEXTSIZE
 40
25.0
  9
$TRACEWID
 40
0.05
  9
$TEXTSTYLE
  7
STANDARD
  9
$CLAYER
  8
GRAM
  9
$CELTYPE
  6
BYLAYER
  9
$CECOLOR
 62
   256
  9
$CELTSCALE
 40
1.0
  9
$DELOBJ
 70
     1
  9
$DISPSILH
 70
     0
  9
$DIMSCALE
 40
10.0
  9
$DIMASZ
 40
3.5
  9
$DIMEXO
 40
10.0
  9
$DIMDLI
 40
10.0
  9
$DIMRND
 40
0.0
  9
$DIMDLE
 40
0.0
  9
$DIMEXE
 40
2.0
  9
$DIMTP
 40
0.0
  9
$DIMTM
 40
0.0
  9
$DIMTXT
 40
3.5
  9
$DIMCEN
 40
-2.0
  9
$DIMTSZ
 40
0.0
  9
$DIMTOL
 70
     0
  9
$DIMLIM
 70
     0
  9
$DIMTIH
 70
     0
  9
$DIMTOH
 70
     0
  9
$DIMSE1
 70
     0
  9
$DIMSE2
 70
     0
  9
$DIMTAD
 70
     1
  9
$DIMZIN
 70
     8
  9
$DIMBLK
  1

  9
$DIMASO
 70
     1
  9
$DIMSHO
 70
     1
  9
$DIMPOST
  1

  9
$DIMAPOST
  1

  9
$DIMALT
 70
     0
  9
$DIMALTD
 70
     2
  9
$DIMALTF
 40
25.4
  9
$DIMLFAC
 40
1.0
  9
$DIMTOFL
 70
     1
  9
$DIMTVP
 40
0.0
  9
$DIMTIX
 70
     0
  9
$DIMSOXD
 70
     0
  9
$DIMSAH
 70
     0
  9
$DIMBLK1
  1

  9
$DIMBLK2
  1

  9
$DIMSTYLE
  2
STANDARD
  9
$DIMCLRD
 70
     0
  9
$DIMCLRE
 70
     0
  9
$DIMCLRT
 70
     0
  9
$DIMTFAC
 40
0.428571
  9
$DIMGAP
 40
2.0
  9
$DIMJUST
 70
     0
  9
$DIMSD1
 70
     0
  9
$DIMSD2
 70
     0
  9
$DIMTOLJ
 70
     1
  9
$DIMTZIN
 70
     8
  9
$DIMALTZ
 70
     8
  9
$DIMALTTZ
 70
     8
  9
$DIMFIT
 70
     5
  9
$DIMUPT
 70
     0
  9
$DIMUNIT
 70
     2
  9
$DIMDEC
 70
     1
  9
$DIMTDEC
 70
     1
  9
$DIMALTU
 70
     2
  9
$DIMALTTD
 70
     2
  9
$DIMTXSTY
  7
STANDARD
  9
$DIMAUNIT
 70
     0
  9
$LUNITS
 70
     2
  9
$LUPREC
 70
     1
  9
$SKETCHINC
 40
0.1
  9
$FILLETRAD
 40
10.0
  9
$AUNITS
 70
     0
  9
$AUPREC
 70
     2
  9
$MENU
  1
GRAM1
  9
$ELEVATION
 40
0.0
  9
$PELEVATION
 40
0.0
  9
$THICKNESS
 40
0.0
  9
$LIMCHECK
 70
     0
  9
$BLIPMODE
 70
     1
  9
$CHAMFERA
 40
10.0
  9
$CHAMFERB
 40
10.0
  9
$CHAMFERC
 40
0.0
  9
$CHAMFERD
 40
0.0
  9
$SKPOLY
 70
     0
  9
$TDCREATE
 40
2450158.396048379
  9
$TDUPDATE
 40
2451682.497501076
  9
$TDINDWG
 40
0.0025528588
  9
$TDUSRTIMER
 40
0.0025528588
  9
$USRTIMER
 70
     1
  9
$ANGBASE
 50
0.0
  9
$ANGDIR
 70
     0
  9
$PDMODE
 70
     0
  9
$PDSIZE
 40
0.0
  9
$PLINEWID
 40
0.0
  9
$COORDS
 70
     2
  9
$SPLFRAME
 70
     0
  9
$SPLINETYPE
 70
     6
  9
$SPLINESEGS
 70
     8
  9
$ATTDIA
 70
     0
  9
$ATTREQ
 70
     1
  9
$HANDLING
 70
     1
  9
$HANDSEED
  5
FD05086AFF7CC55D
  9
$SURFTAB1
 70
    16
  9
$SURFTAB2
 70
    16
  9
$SURFTYPE
 70
     6
  9
$SURFU
 70
     6
  9
$SURFV
 70
     6
  9
$UCSNAME
  2

  9
$UCSORG
 10
0.0
 20
0.0
 30
0.0
  9
$UCSXDIR
 10
1.0
 20
0.0
 30
0.0
  9
$UCSYDIR
 10
0.0
 20
1.0
 30
0.0
  9
$PUCSNAME
  2

  9
$PUCSORG
 10
0.0
 20
0.0
 30
0.0
  9
$PUCSXDIR
 10
1.0
 20
0.0
 30
0.0
  9
$PUCSYDIR
 10
0.0
 20
1.0
 30
0.0
  9
$USERI1
 70
     0
  9
$USERI2
 70
     0
  9
$USERI3
 70
     0
  9
$USERI4
 70
     0
  9
$USERI5
 70
     0
  9
$USERR1
 40
0.0
  9
$USERR2
 40
0.0
  9
$USERR3
 40
0.0
  9
$USERR4
 40
0.0
  9
$USERR5
 40
0.0
  9
$WORLDVIEW
 70
     1
  9
$SHADEDGE
 70
     3
  9
$SHADEDIF
 70
    70
  9
$TILEMODE
 70
     1
  9
$MAXACTVP
 70
    16
  9
$PINSBASE
 10
-10129.001484
 20
13375.115737
 30
-12383.738651
  9
$PLIMCHECK
 70
     0
  9
$PEXTMIN
 10
1.000000E+20
 20
1.000000E+20
 30
1.000000E+20
  9
$PEXTMAX
 10
-1.000000E+20
 20
-1.000000E+20
 30
-1.000000E+20
  9
$PLIMMIN
 10
-1639.893312
 20
-4651.779246
  9
$PLIMMAX
 10
-1219.893312
 20
-4354.779246
  9
$UNITMODE
 70
     0
  9
$VISRETAIN
 70
     0
  9
$PLINEGEN
 70
     0
  9
$PSLTSCALE
 70
     1
  9
$TREEDEPTH
 70
  3020
  9
$PICKSTYLE
 70
     1
  9
$CMLSTYLE
  2
STANDARD
  9
$CMLJUST
 70
     0
  9
$CMLSCALE
 40
1.0
  9
$PROXYGRAPHICS
 70
     1
  9
$MEASUREMENT
 70
     0
  0
ENDSEC
  0
SECTION
  2
CLASSES
  0
CLASS
  1
DICTIONARYVAR
  2
AcDbDictionaryVar
  3
"AutoCAD"
 90
        0
280
     0
281
     0
  0
CLASS
  1
LWPOLYLINE
  2
AcDbPolyline
  3
"AutoCAD"
 90
        0
280
     0
281
     1
  0
ENDSEC
  0
SECTION
  2
TABLES
  0
TABLE
  2
VPORT
  5
DD1DBB79D47E5D13
100
AcDbSymbolTable
 70
     1
  0
VPORT
  5
FD05086AFF7CC558
100
AcDbSymbolTableRecord
100
AcDbViewportTableRecord
  2
*ACTIVE
 70
     0
 10
0.0
 20
0.0
 11
1.0
 21
1.0
 12
-1337.740721
 22
3286.143905
 13
0.0
 23
0.0
 14
50.0
 24
50.0
 15
50.0
 25
50.0
 16
-1.0
 26
-1.0
 36
1.0
 17
-1639.893312
 27
-4651.779246
 37
0.0
 40
2947.304216
 41
1.666016
 42
50.0
 43
-12811.989688
 44
-12811.989688
 50
0.0
 51
0.0
 71
     0
 72
   100
 73
     1
 74
     3
 75
     0
 76
     0
 77
     0
 78
     0
  0
ENDTAB
  0
TABLE
  2
LTYPE
  5
DD1DBB79D47E5D10
100
AcDbSymbolTable
 70
     1
  0
LTYPE
  5
DD1DBB79D47E5D1C
100
AcDbSymbolTableRecord
100
AcDbLinetypeTableRecord
  2
BYBLOCK
 70
     0
  3

 72
    65
 73
     0
 40
0.0
  0
LTYPE
  5
DD1DBB79D47E5D1D
100
AcDbSymbolTableRecord
100
AcDbLinetypeTableRecord
  2
BYLAYER
 70
     0
  3

 72
    65
 73
     0
 40
0.0
  0
LTYPE
  5
DD1DBB79D47E5D1E
100
AcDbSymbolTableRecord
100
AcDbLinetypeTableRecord
  2
CONTINUOUS
 70
     0
  3
Solid line
 72
    65
 73
     0
 40
0.0
  0
ENDTAB
  0
TABLE
  2
LAYER
  5
DD1DBB79D47E5D0D
100
AcDbSymbolTable
 70
    10
  0
LAYER
  5
DD1DBB79D47E5D19
100
AcDbSymbolTableRecord
100
AcDbLayerTableRecord
  2
0
 70
     0
 62
     7
  6
CONTINUOUS
  0
LAYER
  5
DD1DBB79D47E5D37
100
AcDbSymbolTableRecord
100
AcDbLayerTableRecord
  2
GRAM
 70
     0
 62
     2
  6
CONTINUOUS
  0
LAYER
  5
DD1DBB79D47E5D38
100
AcDbSymbolTableRecord
100
AcDbLayerTableRecord
  2
TXT
 70
     0
 62
     3
  6
CONTINUOUS
  0
LAYER
  5
DD1DBB79D47E5D3A
100
AcDbSymbolTableRecord
100
AcDbLayerTableRecord
  2
35
 70
     0
 62
     3
  6
CONTINUOUS
  0
LAYER
  5
DD1DBB79D47E5D3B
100
AcDbSymbolTableRecord
100
AcDbLayerTableRecord
  2
DIM
 70
     0
 62
     7
  6
CONTINUOUS
  0
LAYER
  5
DD1DBB79D47E5D3C
100
AcDbSymbolTableRecord
100
AcDbLayerTableRecord
  2
50
 70
     0
 62
     2
  6
CONTINUOUS
  0
LAYER
  5
DD1DBB79D47E5D3D
100
AcDbSymbolTableRecord
100
AcDbLayerTableRecord
  2
206
 70
     0
 62
     7
  6
CONTINUOUS
  0
LAYER
  5
DD1DBB79D47E5D3E
100
AcDbSymbolTableRecord
100
AcDbLayerTableRecord
  2
350
 70
     0
 62
   230
  6
CONTINUOUS
  0
LAYER
  5
DD1DBB79D47E5D3F
100
AcDbSymbolTableRecord
100
AcDbLayerTableRecord
  2
650
 70
     0
 62
     7
  6
CONTINUOUS
  0
LAYER
  5
DD1DBB79D47E5D40
100
AcDbSymbolTableRecord
100
AcDbLayerTableRecord
  2
470
 70
     0
 62
     3
  6
CONTINUOUS
  0
ENDTAB
  0
TABLE
  2
STYLE
  5
DD1DBB79D47E5D0E
100
AcDbSymbolTable
 70
     2
  0
STYLE
  5
DD1DBB79D47E5D1A
100
AcDbSymbolTableRecord
100
AcDbTextStyleTableRecord
  2
STANDARD
 70
     0
 40
0.0
 41
1.0
 50
0.0
 71
     0
 42
25.0
  3
ROMANS
  4

  0
STYLE
  5
DD1DBB79D47E5D35
100
AcDbSymbolTableRecord
100
AcDbTextStyleTableRecord
  2
SIMPLEX
 70
     0
 40
0.0
 41
1.0
 50
0.0
 71
     0
 42
2.0
  3
MONOTXT
  4

  0
ENDTAB
  0
TABLE
  2
VIEW
  5
DD1DBB79D47E5D11
100
AcDbSymbolTable
 70
     0
  0
ENDTAB
  0
TABLE
  2
UCS
  5
DD1DBB79D47E5D12
100
AcDbSymbolTable
 70
     0
  0
ENDTAB
  0
TABLE
  2
APPID
  5
DD1DBB79D47E5D14
100
AcDbSymbolTable
 70
     1
  0
APPID
  5
DD1DBB79D47E5D1B
100
AcDbSymbolTableRecord
100
AcDbRegAppTableRecord
  2
ACAD
 70
     0
  0
ENDTAB
  0
TABLE
  2
DIMSTYLE
  5
DD1DBB79D47E5D15
100
AcDbSymbolTable
 70
     1
  0
DIMSTYLE
105
FD05086AFF7CC53E
100
AcDbSymbolTableRecord
100
AcDbDimStyleTableRecord
  2
STANDARD
 70
     0
  3

  4

  5

  6

  7

 40
1.0
 41
0.18
 42
0.0625
 43
0.38
 44
0.18
 45
0.0
 46
0.0
 47
0.0
 48
0.0
140
0.18
141
0.09
142
0.0
143
25.4
144
1.0
145
0.0
146
1.0
147
0.09
 71
     0
 72
     0
 73
     1
 74
     1
 75
     0
 76
     0
 77
     0
 78
     0
170
     0
171
     2
172
     0
173
     0
174
     0
175
     0
176
     0
177
     0
178
     0
270
     2
271
     4
272
     4
273
     2
274
     2
340
DD1DBB79D47E5D1A
275
     0
280
     0
281
     0
282
     0
283
     1
284
     0
285
     0
286
     0
287
     3
288
     0
  0
ENDTAB
  0
TABLE
  2
BLOCK_RECORD
  5
DD1DBB79D47E5D0C
100
AcDbSymbolTable
 70
     9
  0
BLOCK_RECORD
  5
DD1DBB79D47E5D22
100
AcDbSymbolTableRecord
100
AcDbBlockTableRecord
  2
*MODEL_SPACE
  0
BLOCK_RECORD
  5
DD1DBB79D47E5D1F
100
AcDbSymbolTableRecord
100
AcDbBlockTableRecord
  2
*PAPER_SPACE
  0
BLOCK_RECORD
  5
DD1DBB79D47E5D2A
100
AcDbSymbolTableRecord
100
AcDbBlockTableRecord
  2
PIL
  0
BLOCK_RECORD
  5
DD1DBB79D47E5D2B
100
AcDbSymbolTableRecord
100
AcDbBlockTableRecord
  2
SYMB1
  0
BLOCK_RECORD
  5
DD1DBB79D47E5D2D
100
AcDbSymbolTableRecord
100
AcDbBlockTableRecord
  2
HUL
  0
BLOCK_RECORD
  5
DD1DBB79D47E5D2F
100
AcDbSymbolTableRecord
100
AcDbBlockTableRecord
  2
GRAMLOGO
  0
BLOCK_RECORD
  5
DD1DBB79D47E5D30
100
AcDbSymbolTableRecord
100
AcDbBlockTableRecord
  2
E3
  0
BLOCK_RECORD
  5
DD1DBB79D47E5D31
100
AcDbSymbolTableRecord
100
AcDbBlockTableRecord
  2
D
  0
BLOCK_RECORD
  5
DD1DBB79D47E5D32
100
AcDbSymbolTableRecord
100
AcDbBlockTableRecord
  2
D-KPS60
  0
BLOCK_RECORD
  5
DD1DBB79D47E5D33
100
AcDbSymbolTableRecord
100
AcDbBlockTableRecord
  2
FR60
  0
BLOCK_RECORD
  5
DD1DBB79D47E5D34
100
AcDbSymbolTableRecord
100
AcDbBlockTableRecord
  2
GRAMSK
  0
ENDTAB
  0
ENDSEC
  0
SECTION
  2
BLOCKS
  0
BLOCK
  5
DD1DBB79D47E5D43
100
AcDbEntity
  8
0
100
AcDbBlockBegin
  2
*MODEL_SPACE
 70
     0
 10
0.0
 20
0.0
 30
0.0
  3
*MODEL_SPACE
  1

  0
ENDBLK
  5
DD1DBB79D47E5D44
100
AcDbEntity
  8
0
100
AcDbBlockEnd
  0
BLOCK
  5
DD1DBB79D47E5D41
100
AcDbEntity
 67
     1
  8
0
100
AcDbBlockBegin
  2
*PAPER_SPACE
 70
     0
 10
0.0
 20
0.0
 30
0.0
  3
*PAPER_SPACE
  1

  0
ENDBLK
  5
DD1DBB79D47E5D42
100
AcDbEntity
 67
     1
  8
0
100
AcDbBlockEnd
  0
BLOCK
  5
BEB33783F8ABE6C8
100
AcDbEntity
  8
0
100
AcDbBlockBegin
  2
PIL
 70
     0
 10
0.0
 20
0.0
 30
0.0
  3
PIL
  1

  0
INSERT
  5
BEB33783F8ABE6C9
100
AcDbEntity
  8
0
100
AcDbBlockReference
  2
SYMB1
 10
0.0
 20
0.0
 30
0.0
  0
INSERT
  5
BEB33783F8ABE6CA
100
AcDbEntity
  8
DIM
100
AcDbBlockReference
  2
SYMB1
 10
0.0
 20
0.0
 30
0.0
  0
LINE
  5
BEB33783F8ABE6CB
100
AcDbEntity
  8
35
100
AcDbLine
 10
0.0
 20
0.0
 30
0.0
 11
3.0
 21
3.0
 31
0.0
  0
LINE
  5
BEB33783F8ABE6CC
100
AcDbEntity
  8
35
100
AcDbLine
 10
3.0
 20
3.0
 30
0.0
 11
3.0
 21
1.125
 31
0.0
  0
LINE
  5
BEB33783F8ABE6CD
100
AcDbEntity
  8
35
100
AcDbLine
 10
3.0
 20
1.125
 30
0.0
 11
7.125
 21
1.125
 31
0.0
  0
LINE
  5
BEB33783F8ABE6CE
100
AcDbEntity
  8
35
100
AcDbLine
 10
7.125
 20
1.125
 30
0.0
 11
7.5
 21
1.125
 31
0.0
  0
LINE
  5
BEB33783F8ABE6CF
100
AcDbEntity
  8
35
100
AcDbLine
 10
7.5
 20
1.125
 30
0.0
 11
7.5
 21
-1.125
 31
0.0
  0
LINE
  5
BEB33783F8ABE6D0
100
AcDbEntity
  8
35
100
AcDbLine
 10
7.5
 20
-1.125
 30
0.0
 11
3.0
 21
-1.125
 31
0.0
  0
LINE
  5
BEB33783F8ABE6D1
100
AcDbEntity
  8
35
100
AcDbLine
 10
3.0
 20
-1.125
 30
0.0
 11
3.0
 21
-3.0
 31
0.0
  0
LINE
  5
BEB33783F8ABE6D2
100
AcDbEntity
  8
35
100
AcDbLine
 10
3.0
 20
-3.0
 30
0.0
 11
0.0
 21
0.0
 31
0.0
  0
LINE
  5
BEB33783F8ABE6D3
100
AcDbEntity
  8
35
100
AcDbLine
 10
7.5
 20
0.0
 30
0.0
 11
7.51
 21
0.0
 31
0.0
  0
ENDBLK
  5
BEB33783F8ABE6D4
100
AcDbEntity
  8
0
100
AcDbBlockEnd
  0
BLOCK
  5
BEB33783F8ABE6D5
100
AcDbEntity
  8
0
100
AcDbBlockBegin
  2
SYMB1
 70
     0
 10
0.0
 20
0.0
 30
0.0
  3
SYMB1
  1

  0
ENDBLK
  5
BEB33783F8ABE6D6
100
AcDbEntity
  8
0
100
AcDbBlockEnd
  0
BLOCK
  5
EA4B83991A08BF4B
100
AcDbEntity
  8
0
100
AcDbBlockBegin
  2
HUL
 70
     0
 10
0.0
 20
0.0
 30
0.0
  3
HUL
  1

  0
LINE
  5
FD05086AFF7CC511
100
AcDbEntity
  8
GRAM
100
AcDbLine
 10
-3.5
 20
0.0
 30
0.0
 11
-3.5
 21
-38.0
 31
0.0
  0
LINE
  5
FD05086AFF7CC512
100
AcDbEntity
  8
GRAM
100
AcDbLine
 10
3.5
 20
0.0
 30
0.0
 11
3.5
 21
-38.0
 31
0.0
  0
ARC
  5
FD05086AFF7CC52E
100
AcDbEntity
  8
GRAM
100
AcDbCircle
 10
0.0
 20
-38.0
 30
0.0
 40
3.5
100
AcDbArc
 50
180.0
 51
360.0
  0
ARC
  5
FD05086AFF7CC53B
100
AcDbEntity
  8
GRAM
100
AcDbCircle
 10
0.0
 20
0.0
 30
0.0
 40
3.5
100
AcDbArc
 50
0.0
 51
180.0
  0
ENDBLK
  5
15E3D0B9F6240881
100
AcDbEntity
  8
0
100
AcDbBlockEnd
  0
BLOCK
  5
4AED25A1595A904C
100
AcDbEntity
  8
0
100
AcDbBlockBegin
  2
GRAMLOGO
 70
     0
 10
0.0
 20
0.0
 30
0.0
  3
GRAMLOGO
  1

  0
LWPOLYLINE
  5
4AED25A1595ABB30
100
AcDbEntity
  8
TXT
100
AcDbPolyline
 90
       71
 70
     0
 43
0.0
 10
-4.477647
 20
3.878704
 42
0.449112
 10
-2.848007
 20
0.233744
 42
0.068247
 10
0.0
 20
0.0
 10
-0.541449
 20
-1.28485
 10
2.874671
 20
-1.28485
 10
3.456495
 20
0.002669
 10
8.169848
 20
0.002669
 10
9.813186
 20
3.903268
 10
10.996835
 20
3.903268
 42
-0.080336
 10
11.204255
 20
3.878667
 42
-0.271678
 10
11.337868
 20
3.738451
 42
-0.425351
 10
10.815568
 20
2.930014
 42
-0.037129
 10
10.42439
 20
2.883388
 10
10.218263
 20
2.874227
 10
9.379647
 20
2.874227
 10
10.593604
 20
0.007349
 10
14.225628
 20
0.007349
 10
15.21365
 20
1.175529
 10
17.737526
 20
1.175529
 10
18.200684
 20
-0.015023
 10
21.468587
 20
-0.015023
 10
22.721082
 20
2.932132
 10
23.940096
 20
-0.068977
 10
27.538438
 20
2.79953
 10
26.314476
 20
-0.053285
 10
29.163102
 20
-0.053285
 10
31.271315
 20
4.984348
 10
28.510361
 20
4.984348
 10
25.747064
 20
2.787445
 10
24.752685
 20
5.03538
 10
22.265496
 20
5.03538
 10
20.594907
 20
1.234345
 10
18.984889
 20
5.045673
 10
16.994664
 20
5.045673
 10
13.598839
 20
1.195293
 10
13.039938
 20
1.195293
 10
12.517224
 20
2.471211
 10
12.721484
 20
2.496877
 42
0.425351
 10
13.908341
 20
4.333943
 42
0.280936
 10
13.146701
 20
5.106184
 10
7.335095
 20
5.106184
 10
5.692536
 20
1.248763
 10
3.961975
 20
1.248763
 10
5.642548
 20
5.128012
 10
1.09445
 20
5.128012
 10
0.570753
 20
3.912019
 10
1.668957
 20
3.912019
 10
0.513289
 20
1.212831
 42
-0.088508
 10
-0.755558
 20
1.378704
 42
-0.221051
 10
-1.392261
 20
1.962002
 42
-0.01148
 10
-1.529612
 20
2.314991
 42
-0.149242
 10
-1.560499
 20
2.910455
 42
0.037381
 10
-1.480756
 20
3.375715
 42
-0.117237
 10
-1.318111
 20
3.853002
 42
0.016359
 10
-0.99732
 20
4.40161
 42
-0.101209
 10
-0.616904
 20
4.85497
 42
0.012458
 10
-0.013196
 20
5.359195
 42
-0.125204
 10
0.999193
 20
5.875557
 42
0.033156
 10
1.665811
 20
6.073632
 42
-0.075521
 10
1.972022
 20
6.137094
 10
2.945683
 20
6.189333
 10
6.061264
 20
6.189333
 10
6.57654
 20
7.378704
 10
1.358861
 20
7.378704
 42
0.100094
 10
-1.17354
 20
6.866617
 42
0.013495
 10
-2.319233
 20
6.346668
 42
0.0533
 10
-3.06644
 20
5.878704
 42
0.051038
 10
-3.610595
 20
5.353152
 42
0.02092
 10
-4.014558
 20
4.831538
 42
0.043058
 10
-4.281772
 20
4.376594
 42
0.031952
 10
-4.462197
 20
3.92634
  0
LWPOLYLINE
  5
4AED25A1595ABADA
100
AcDbEntity
  8
TXT
100
AcDbPolyline
 90
        3
 70
     1
 43
0.0
 10
16.103368
 20
2.098432
 10
17.321586
 20
2.098432
 10
16.915493
 20
3.034311
  0
ENDBLK
  5
4AED25A1595B1245
100
AcDbEntity
  8
0
100
AcDbBlockEnd
  0
BLOCK
  5
B8341104178C4F1E
100
AcDbEntity
  8
0
100
AcDbBlockBegin
  2
E3
 70
     0
 10
0.0
 20
0.0
 30
0.0
  3
E3
  1

  0
LINE
  5
B8341104178C4F1F
100
AcDbEntity
  8
350
 62
     1
100
AcDbLine
 10
-44.535537
 20
17.674378
 30
0.0
 11
0.118217
 21
95.087557
 31
0.0
  0
LINE
  5
B8341104178C4F20
100
AcDbEntity
  8
350
 62
     1
100
AcDbLine
 10
-44.535537
 20
17.674378
 30
0.0
 11
44.833127
 21
17.674378
 31
0.0
  0
LINE
  5
B8341104178C4F21
100
AcDbEntity
  8
350
 62
     1
100
AcDbLine
 10
-56.0
 20
43.535187
 30
0.0
 11
56.0
 21
43.535187
 31
0.0
  0
ARC
  5
B8341104178C4F22
100
AcDbEntity
  8
350
 62
     1
100
AcDbCircle
 10
-81.276073
 20
68.04738
 30
0.0
 40
5.689756
100
AcDbArc
 50
18.895659
 51
169.961117
  0
TEXT
  5
B8341104178C4F23
100
AcDbEntity
  8
350
 62
     1
100
AcDbText
 10
-83.506149
 20
87.668369
 30
0.0
 40
28.0
  1
E
  7
SIMPLEX
100
AcDbText
  0
TEXT
  5
B8341104178C4F24
100
AcDbEntity
  8
350
 62
     1
100
AcDbText
 10
-103.332446
 20
71.949494
 30
0.0
 40
17.5
  1
3
  7
SIMPLEX
100
AcDbText
  0
ARC
  5
B8341104178C4F25
100
AcDbEntity
  8
350
 62
     1
100
AcDbCircle
 10
-70.582514
 20
72.746199
 30
0.0
 40
6.029808
100
AcDbArc
 50
208.273618
 51
358.332632
  0
LINE
  5
B8341104178C4F26
100
AcDbEntity
  8
350
 62
     1
100
AcDbLine
 10
0.0
 20
112.0
 30
0.0
 11
0.0
 21
0.0
 31
0.0
  0
LINE
  5
B8341104178C4F27
100
AcDbEntity
  8
350
 62
     1
100
AcDbLine
 10
44.833127
 20
17.674378
 30
0.0
 11
0.112283
 21
95.077271
 31
0.0
  0
ENDBLK
  5
B8341104178C4F28
100
AcDbEntity
  8
0
100
AcDbBlockEnd
  0
BLOCK
  5
B8341104178EFF2C
100
AcDbEntity
  8
0
100
AcDbBlockBegin
  2
D
 70
     0
 10
0.0
 20
0.0
 30
0.0
  3
D
  1

  0
LINE
  5
B8341104178EFF2D
100
AcDbEntity
  8
470
100
AcDbLine
 10
30.0
 20
0.0
 30
0.0
 11
-30.0
 21
0.0
 31
0.0
  0
CIRCLE
  5
B8341104178EFF2E
100
AcDbEntity
  8
470
100
AcDbCircle
 10
0.0
 20
0.0
 30
0.0
 40
30.0
  0
LINE
  5
B8341104178EFF2F
100
AcDbEntity
  8
470
100
AcDbLine
 10
28.284271
 20
-10.0
 30
0.0
 11
-28.284271
 21
-10.0
 31
0.0
  0
LINE
  5
B8341104178EFF30
100
AcDbEntity
  8
470
100
AcDbLine
 10
28.284271
 20
10.0
 30
0.0
 11
-28.284271
 21
10.0
 31
0.0
  0
LINE
  5
B8341104178EFF31
100
AcDbEntity
  8
470
100
AcDbLine
 10
0.0
 20
-30.0
 30
0.0
 11
0.0
 21
30.0
 31
0.0
  0
LINE
  5
B8341104178EFF32
100
AcDbEntity
  8
470
100
AcDbLine
 10
10.0
 20
-28.284271
 30
0.0
 11
10.0
 21
28.284271
 31
0.0
  0
LINE
  5
B8341104178EFF33
100
AcDbEntity
  8
470
100
AcDbLine
 10
20.0
 20
-22.36068
 30
0.0
 11
20.0
 21
22.36068
 31
0.0
  0
LINE
  5
B8341104178EFF34
100
AcDbEntity
  8
470
100
AcDbLine
 10
-10.0
 20
-28.284271
 30
0.0
 11
-10.0
 21
28.284271
 31
0.0
  0
LINE
  5
B8341104178EFF35
100
AcDbEntity
  8
470
100
AcDbLine
 10
-20.0
 20
-22.36068
 30
0.0
 11
-20.0
 21
22.36068
 31
0.0
  0
LINE
  5
B8341104178EFF36
100
AcDbEntity
  8
470
100
AcDbLine
 10
22.36068
 20
-20.0
 30
0.0
 11
-22.36068
 21
-20.0
 31
0.0
  0
LINE
  5
B8341104178EFF37
100
AcDbEntity
  8
470
100
AcDbLine
 10
22.36068
 20
20.0
 30
0.0
 11
-22.36068
 21
20.0
 31
0.0
  0
ENDBLK
  5
B8341104178EFF38
100
AcDbEntity
  8
0
100
AcDbBlockEnd
  0
BLOCK
  5
C190C4419611AFC9
100
AcDbEntity
  8
0
100
AcDbBlockBegin
  2
D-KPS60
 70
     0
 10
0.0
 20
0.0
 30
0.0
  3
D-KPS60
  1

  0
3DFACE
  5
C190C65A503D8D89
100
AcDbEntity
  8
GRAM
100
AcDbFace
 10
0.0
 20
-1561.0
 30
-35.0
 11
0.0
 21
-1561.0
 31
0.0
 12
0.0
 22
0.0
 32
0.0
 13
0.0
 23
0.0
 33
-35.0
  0
3DFACE
  5
C190C65A503D8D88
100
AcDbEntity
  8
GRAM
100
AcDbFace
 10
-724.0
 20
-1561.0
 30
-35.0
 11
-724.0
 21
-1561.0
 31
0.0
 12
-724.0
 22
0.0
 32
0.0
 13
-724.0
 23
0.0
 33
-35.0
  0
3DFACE
  5
C190C65A503D8D85
100
AcDbEntity
  8
GRAM
100
AcDbFace
 10
-724.0
 20
-1561.0
 30
-35.0
 11
0.0
 21
-1561.0
 31
-35.0
 12
0.0
 22
0.0
 32
-35.0
 13
-724.0
 23
0.0
 33
-35.0
  0
3DFACE
  5
C190C65A503D8D84
100
AcDbEntity
  8
GRAM
100
AcDbFace
 10
-724.0
 20
-1561.0
 30
0.0
 11
0.0
 21
-1561.0
 31
0.0
 12
0.0
 22
0.0
 32
0.0
 13
-724.0
 23
0.0
 33
0.0
  0
3DFACE
  5
CAED7997BA043E4E
100
AcDbEntity
  8
GRAM
100
AcDbFace
 10
-719.0
 20
-1561.0
 30
-35.0
 11
-5.0
 21
-1561.0
 31
-35.0
 12
-5.0
 22
-1574.9
 32
-35.0
 13
-719.0
 23
-1574.9
 33
-35.0
  0
3DFACE
  5
C190C65A503D8D86
100
AcDbEntity
  8
GRAM
100
AcDbFace
 10
-724.0
 20
-1561.0
 30
-35.0
 11
-724.0
 21
-1561.0
 31
0.0
 12
0.0
 22
-1561.0
 32
0.0
 13
0.0
 23
-1561.0
 33
-35.0
  0
POLYLINE
  5
463F1EECA80AF6E8
100
AcDbEntity
  8
GRAM
100
AcDbPolygonMesh
 66
     1
 10
0.0
 20
0.0
 30
0.0
 70
    48
 71
     2
 72
    16
  0
VERTEX
  5
463F1EECA80AF6E9
100
AcDbEntity
  8
GRAM
100
AcDbVertex
100
AcDbPolygonMeshVertex
 10
23.0
 20
-1486.5
 30
-17.5
 70
    64
  0
VERTEX
  5
463F1EECA80AF6EA
100
AcDbEntity
  8
GRAM
100
AcDbVertex
100
AcDbPolygonMeshVertex
 10
22.124615
 20
-1486.5
 30
-21.900859
 70
    64
  0
VERTEX
  5
463F1EECA80AF6EB
100
AcDbEntity
  8
GRAM
100
AcDbVertex
100
AcDbPolygonMeshVertex
 10
19.631728
 20
-1486.5
 30
-25.631728
 70
    64
  0
VERTEX
  5
463F1EECA80AF6EC
100
AcDbEntity
  8
GRAM
100
AcDbVertex
100
AcDbPolygonMeshVertex
 10
15.900859
 20
-1486.5
 30
-28.124615
 70
    64
  0
VERTEX
  5
463F1EECA80AF6ED
100
AcDbEntity
  8
GRAM
100
AcDbVertex
100
AcDbPolygonMeshVertex
 10
11.5
 20
-1486.5
 30
-29.0
 70
    64
  0
VERTEX
  5
463F1EECA80AF6EE
100
AcDbEntity
  8
GRAM
100
AcDbVertex
100
AcDbPolygonMeshVertex
 10
7.099141
 20
-1486.5
 30
-28.124615
 70
    64
  0
VERTEX
  5
463F1EECA80AF6EF
100
AcDbEntity
  8
GRAM
100
AcDbVertex
100
AcDbPolygonMeshVertex
 10
3.368272
 20
-1486.5
 30
-25.631728
 70
    64
  0
VERTEX
  5
463F1EECA80AF6F0
100
AcDbEntity
  8
GRAM
100
AcDbVertex
100
AcDbPolygonMeshVertex
 10
0.875385
 20
-1486.5
 30
-21.900859
 70
    64
  0
VERTEX
  5
463F1EECA80AF6F1
100
AcDbEntity
  8
GRAM
100
AcDbVertex
100
AcDbPolygonMeshVertex
 10
0.0
 20
-1486.5
 30
-17.5
 70
    64
  0
VERTEX
  5
463F1EECA80AF6F2
100
AcDbEntity
  8
GRAM
100
AcDbVertex
100
AcDbPolygonMeshVertex
 10
0.875385
 20
-1486.5
 30
-13.099141
 70
    64
  0
VERTEX
  5
463F1EECA80AF6F3
100
AcDbEntity
  8
GRAM
100
AcDbVertex
100
AcDbPolygonMeshVertex
 10
3.368272
 20
-1486.5
 30
-9.368272
 70
    64
  0
VERTEX
  5
463F1EECA80AF6F4
100
AcDbEntity
  8
GRAM
100
AcDbVertex
100
AcDbPolygonMeshVertex
 10
7.099141
 20
-1486.5
 30
-6.875385
 70
    64
  0
VERTEX
  5
463F1EECA80AF6F5
100
AcDbEntity
  8
GRAM
100
AcDbVertex
100
AcDbPolygonMeshVertex
 10
11.5
 20
-1486.5
 30
-6.0
 70
    64
  0
VERTEX
  5
463F1EECA80AF6F6
100
AcDbEntity
  8
GRAM
100
AcDbVertex
100
AcDbPolygonMeshVertex
 10
15.900859
 20
-1486.5
 30
-6.875385
 70
    64
  0
VERTEX
  5
463F1EECA80AF6F7
100
AcDbEntity
  8
GRAM
100
AcDbVertex
100
AcDbPolygonMeshVertex
 10
19.631728
 20
-1486.5
 30
-9.368272
 70
    64
  0
VERTEX
  5
463F1EECA80AF6F8
100
AcDbEntity
  8
GRAM
100
AcDbVertex
100
AcDbPolygonMeshVertex
 10
22.124615
 20
-1486.5
 30
-13.099141
 70
    64
  0
VERTEX
  5
463F1EECA80AF6F9
100
AcDbEntity
  8
GRAM
100
AcDbVertex
100
AcDbPolygonMeshVertex
 10
23.0
 20
-1361.5
 30
-17.5
 70
    64
  0
VERTEX
  5
463F1EECA80AF6FA
100
AcDbEntity
  8
GRAM
100
AcDbVertex
100
AcDbPolygonMeshVertex
 10
22.124615
 20
-1361.5
 30
-21.900859
 70
    64
  0
VERTEX
  5
463F1EECA80AF6FB
100
AcDbEntity
  8
GRAM
100
AcDbVertex
100
AcDbPolygonMeshVertex
 10
19.631728
 20
-1361.5
 30
-25.631728
 70
    64
  0
VERTEX
  5
463F1EECA80AF6FC
100
AcDbEntity
  8
GRAM
100
AcDbVertex
100
AcDbPolygonMeshVertex
 10
15.900859
 20
-1361.5
 30
-28.124615
 70
    64
  0
VERTEX
  5
463F1EECA80AF6FD
100
AcDbEntity
  8
GRAM
100
AcDbVertex
100
AcDbPolygonMeshVertex
 10
11.5
 20
-1361.5
 30
-29.0
 70
    64
  0
VERTEX
  5
463F1EECA80AF6FE
100
AcDbEntity
  8
GRAM
100
AcDbVertex
100
AcDbPolygonMeshVertex
 10
7.099141
 20
-1361.5
 30
-28.124615
 70
    64
  0
VERTEX
  5
463F1EECA80AF6FF
100
AcDbEntity
  8
GRAM
100
AcDbVertex
100
AcDbPolygonMeshVertex
 10
3.368272
 20
-1361.5
 30
-25.631728
 70
    64
  0
VERTEX
  5
463F1EECA80AF700
100
AcDbEntity
  8
GRAM
100
AcDbVertex
100
AcDbPolygonMeshVertex
 10
0.875385
 20
-1361.5
 30
-21.900859
 70
    64
  0
VERTEX
  5
463F1EECA80AF701
100
AcDbEntity
  8
GRAM
100
AcDbVertex
100
AcDbPolygonMeshVertex
 10
0.0
 20
-1361.5
 30
-17.5
 70
    64
  0
VERTEX
  5
463F1EECA80AF702
100
AcDbEntity
  8
GRAM
100
AcDbVertex
100
AcDbPolygonMeshVertex
 10
0.875385
 20
-1361.5
 30
-13.099141
 70
    64
  0
VERTEX
  5
463F1EECA80AF703
100
AcDbEntity
  8
GRAM
100
AcDbVertex
100
AcDbPolygonMeshVertex
 10
3.368272
 20
-1361.5
 30
-9.368272
 70
    64
  0
VERTEX
  5
463F1EECA80AF704
100
AcDbEntity
  8
GRAM
100
AcDbVertex
100
AcDbPolygonMeshVertex
 10
7.099141
 20
-1361.5
 30
-6.875385
 70
    64
  0
VERTEX
  5
463F1EECA80AF705
100
AcDbEntity
  8
GRAM
100
AcDbVertex
100
AcDbPolygonMeshVertex
 10
11.5
 20
-1361.5
 30
-6.0
 70
    64
  0
VERTEX
  5
463F1EECA80AF706
100
AcDbEntity
  8
GRAM
100
AcDbVertex
100
AcDbPolygonMeshVertex
 10
15.900859
 20
-1361.5
 30
-6.875385
 70
    64
  0
VERTEX
  5
463F1EECA80AF707
100
AcDbEntity
  8
GRAM
100
AcDbVertex
100
AcDbPolygonMeshVertex
 10
19.631728
 20
-1361.5
 30
-9.368272
 70
    64
  0
VERTEX
  5
463F1EECA80AF708
100
AcDbEntity
  8
GRAM
100
AcDbVertex
100
AcDbPolygonMeshVertex
 10
22.124615
 20
-1361.5
 30
-13.099141
 70
    64
  0
SEQEND
  5
463F1EECA80AF709
100
AcDbEntity
  8
GRAM
  0
POLYLINE
  5
463F1EECA80AF6C6
100
AcDbEntity
  8
GRAM
100
AcDbPolygonMesh
 66
     1
 10
0.0
 20
0.0
 30
0.0
 70
    48
 71
     2
 72
    16
  0
VERTEX
  5
463F1EECA80AF6C7
100
AcDbEntity
  8
GRAM
100
AcDbVertex
100
AcDbPolygonMeshVertex
 10
23.0
 20
-861.5
 30
-17.5
 70
    64
  0
VERTEX
  5
463F1EECA80AF6C8
100
AcDbEntity
  8
GRAM
100
AcDbVertex
100
AcDbPolygonMeshVertex
 10
22.124615
 20
-861.5
 30
-21.900859
 70
    64
  0
VERTEX
  5
463F1EECA80AF6C9
100
AcDbEntity
  8
GRAM
100
AcDbVertex
100
AcDbPolygonMeshVertex
 10
19.631728
 20
-861.5
 30
-25.631728
 70
    64
  0
VERTEX
  5
463F1EECA80AF6CA
100
AcDbEntity
  8
GRAM
100
AcDbVertex
100
AcDbPolygonMeshVertex
 10
15.900859
 20
-861.5
 30
-28.124615
 70
    64
  0
VERTEX
  5
463F1EECA80AF6CB
100
AcDbEntity
  8
GRAM
100
AcDbVertex
100
AcDbPolygonMeshVertex
 10
11.5
 20
-861.5
 30
-29.0
 70
    64
  0
VERTEX
  5
463F1EECA80AF6CC
100
AcDbEntity
  8
GRAM
100
AcDbVertex
100
AcDbPolygonMeshVertex
 10
7.099141
 20
-861.5
 30
-28.124615
 70
    64
  0
VERTEX
  5
463F1EECA80AF6CD
100
AcDbEntity
  8
GRAM
100
AcDbVertex
100
AcDbPolygonMeshVertex
 10
3.368272
 20
-861.5
 30
-25.631728
 70
    64
  0
VERTEX
  5
463F1EECA80AF6CE
100
AcDbEntity
  8
GRAM
100
AcDbVertex
100
AcDbPolygonMeshVertex
 10
0.875385
 20
-861.5
 30
-21.900859
 70
    64
  0
VERTEX
  5
463F1EECA80AF6CF
100
AcDbEntity
  8
GRAM
100
AcDbVertex
100
AcDbPolygonMeshVertex
 10
0.0
 20
-861.5
 30
-17.5
 70
    64
  0
VERTEX
  5
463F1EECA80AF6D0
100
AcDbEntity
  8
GRAM
100
AcDbVertex
100
AcDbPolygonMeshVertex
 10
0.875385
 20
-861.5
 30
-13.099141
 70
    64
  0
VERTEX
  5
463F1EECA80AF6D1
100
AcDbEntity
  8
GRAM
100
AcDbVertex
100
AcDbPolygonMeshVertex
 10
3.368272
 20
-861.5
 30
-9.368272
 70
    64
  0
VERTEX
  5
463F1EECA80AF6D2
100
AcDbEntity
  8
GRAM
100
AcDbVertex
100
AcDbPolygonMeshVertex
 10
7.099141
 20
-861.5
 30
-6.875385
 70
    64
  0
VERTEX
  5
463F1EECA80AF6D3
100
AcDbEntity
  8
GRAM
100
AcDbVertex
100
AcDbPolygonMeshVertex
 10
11.5
 20
-861.5
 30
-6.0
 70
    64
  0
VERTEX
  5
463F1EECA80AF6D4
100
AcDbEntity
  8
GRAM
100
AcDbVertex
100
AcDbPolygonMeshVertex
 10
15.900859
 20
-861.5
 30
-6.875385
 70
    64
  0
VERTEX
  5
463F1EECA80AF6D5
100
AcDbEntity
  8
GRAM
100
AcDbVertex
100
AcDbPolygonMeshVertex
 10
19.631728
 20
-861.5
 30
-9.368272
 70
    64
  0
VERTEX
  5
463F1EECA80AF6D6
100
AcDbEntity
  8
GRAM
100
AcDbVertex
100
AcDbPolygonMeshVertex
 10
22.124615
 20
-861.5
 30
-13.099141
 70
    64
  0
VERTEX
  5
463F1EECA80AF6D7
100
AcDbEntity
  8
GRAM
100
AcDbVertex
100
AcDbPolygonMeshVertex
 10
23.0
 20
-736.5
 30
-17.5
 70
    64
  0
VERTEX
  5
463F1EECA80AF6D8
100
AcDbEntity
  8
GRAM
100
AcDbVertex
100
AcDbPolygonMeshVertex
 10
22.124615
 20
-736.5
 30
-21.900859
 70
    64
  0
VERTEX
  5
463F1EECA80AF6D9
100
AcDbEntity
  8
GRAM
100
AcDbVertex
100
AcDbPolygonMeshVertex
 10
19.631728
 20
-736.5
 30
-25.631728
 70
    64
  0
VERTEX
  5
463F1EECA80AF6DA
100
AcDbEntity
  8
GRAM
100
AcDbVertex
100
AcDbPolygonMeshVertex
 10
15.900859
 20
-736.5
 30
-28.124615
 70
    64
  0
VERTEX
  5
463F1EECA80AF6DB
100
AcDbEntity
  8
GRAM
100
AcDbVertex
100
AcDbPolygonMeshVertex
 10
11.5
 20
-736.5
 30
-29.0
 70
    64
  0
VERTEX
  5
463F1EECA80AF6DC
100
AcDbEntity
  8
GRAM
100
AcDbVertex
100
AcDbPolygonMeshVertex
 10
7.099141
 20
-736.5
 30
-28.124615
 70
    64
  0
VERTEX
  5
463F1EECA80AF6DD
100
AcDbEntity
  8
GRAM
100
AcDbVertex
100
AcDbPolygonMeshVertex
 10
3.368272
 20
-736.5
 30
-25.631728
 70
    64
  0
VERTEX
  5
463F1EECA80AF6DE
100
AcDbEntity
  8
GRAM
100
AcDbVertex
100
AcDbPolygonMeshVertex
 10
0.875385
 20
-736.5
 30
-21.900859
 70
    64
  0
VERTEX
  5
463F1EECA80AF6DF
100
AcDbEntity
  8
GRAM
100
AcDbVertex
100
AcDbPolygonMeshVertex
 10
0.0
 20
-736.5
 30
-17.5
 70
    64
  0
VERTEX
  5
463F1EECA80AF6E0
100
AcDbEntity
  8
GRAM
100
AcDbVertex
100
AcDbPolygonMeshVertex
 10
0.875385
 20
-736.5
 30
-13.099141
 70
    64
  0
VERTEX
  5
463F1EECA80AF6E1
100
AcDbEntity
  8
GRAM
100
AcDbVertex
100
AcDbPolygonMeshVertex
 10
3.368272
 20
-736.5
 30
-9.368272
 70
    64
  0
VERTEX
  5
463F1EECA80AF6E2
100
AcDbEntity
  8
GRAM
100
AcDbVertex
100
AcDbPolygonMeshVertex
 10
7.099141
 20
-736.5
 30
-6.875385
 70
    64
  0
VERTEX
  5
463F1EECA80AF6E3
100
AcDbEntity
  8
GRAM
100
AcDbVertex
100
AcDbPolygonMeshVertex
 10
11.5
 20
-736.5
 30
-6.0
 70
    64
  0
VERTEX
  5
463F1EECA80AF6E4
100
AcDbEntity
  8
GRAM
100
AcDbVertex
100
AcDbPolygonMeshVertex
 10
15.900859
 20
-736.5
 30
-6.875385
 70
    64
  0
VERTEX
  5
463F1EECA80AF6E5
100
AcDbEntity
  8
GRAM
100
AcDbVertex
100
AcDbPolygonMeshVertex
 10
19.631728
 20
-736.5
 30
-9.368272
 70
    64
  0
VERTEX
  5
463F1EECA80AF6E6
100
AcDbEntity
  8
GRAM
100
AcDbVertex
100
AcDbPolygonMeshVertex
 10
22.124615
 20
-736.5
 30
-13.099141
 70
    64
  0
SEQEND
  5
463F1EECA80AF6E7
100
AcDbEntity
  8
GRAM
  0
3DFACE
  5
463F1EECA80AF613
100
AcDbEntity
  8
GRAM
100
AcDbFace
 10
-726.0
 20
-696.0
 30
1.0
 11
-726.0
 21
-536.0
 31
1.0
 12
-745.0
 22
-536.0
 32
1.0
 13
-745.0
 23
-696.0
 33
1.0
  0
3DFACE
  5
463F1EECA80AF60D
100
AcDbEntity
  8
GRAM
100
AcDbFace
 10
-724.0
 20
-466.0
 30
0.0
 11
-724.0
 21
-466.0
 31
-30.0
 12
-724.0
 22
-616.0
 32
-30.0
 13
-724.0
 23
-616.0
 33
0.0
  0
3DFACE
  5
463F1EECA80AF60E
100
AcDbEntity
  8
GRAM
100
AcDbFace
 10
-747.0
 20
-466.0
 30
0.0
 11
-747.0
 21
-466.0
 31
-30.0
 12
-747.0
 22
-616.0
 32
-30.0
 13
-747.0
 23
-616.0
 33
0.0
  0
3DFACE
  5
463F1EECA80AF611
100
AcDbEntity
  8
GRAM
100
AcDbFace
 10
-724.0
 20
-466.0
 30
0.0
 11
-747.0
 21
-466.0
 31
0.0
 12
-747.0
 22
-616.0
 32
0.0
 13
-724.0
 23
-616.0
 33
0.0
  0
3DFACE
  5
463F1EECA80AF612
100
AcDbEntity
  8
GRAM
100
AcDbFace
 10
-724.0
 20
-466.0
 30
-30.0
 11
-747.0
 21
-466.0
 31
-30.0
 12
-747.0
 22
-616.0
 32
-30.0
 13
-724.0
 23
-616.0
 33
-30.0
  0
3DFACE
  5
463F1EECA80AF610
100
AcDbEntity
  8
GRAM
100
AcDbFace
 10
-724.0
 20
-616.0
 30
0.0
 11
-747.0
 21
-616.0
 31
0.0
 12
-747.0
 22
-616.0
 32
-30.0
 13
-724.0
 23
-616.0
 33
-30.0
  0
3DFACE
  5
463F1EECA80AF60F
100
AcDbEntity
  8
GRAM
100
AcDbFace
 10
-724.0
 20
-466.0
 30
0.0
 11
-747.0
 21
-466.0
 31
0.0
 12
-747.0
 22
-466.0
 32
-30.0
 13
-724.0
 23
-466.0
 33
-30.0
  0
POLYLINE
  5
463F1EECA80AF6A4
100
AcDbEntity
  8
GRAM
100
AcDbPolygonMesh
 66
     1
 10
0.0
 20
0.0
 30
0.0
 70
    48
 71
     2
 72
    16
  0
VERTEX
  5
463F1EECA80AF6A5
100
AcDbEntity
  8
GRAM
100
AcDbVertex
100
AcDbPolygonMeshVertex
 10
23.0
 20
-236.5
 30
-17.5
 70
    64
  0
VERTEX
  5
463F1EECA80AF6A6
100
AcDbEntity
  8
GRAM
100
AcDbVertex
100
AcDbPolygonMeshVertex
 10
22.124615
 20
-236.5
 30
-21.900859
 70
    64
  0
VERTEX
  5
463F1EECA80AF6A7
100
AcDbEntity
  8
GRAM
100
AcDbVertex
100
AcDbPolygonMeshVertex
 10
19.631728
 20
-236.5
 30
-25.631728
 70
    64
  0
VERTEX
  5
463F1EECA80AF6A8
100
AcDbEntity
  8
GRAM
100
AcDbVertex
100
AcDbPolygonMeshVertex
 10
15.900859
 20
-236.5
 30
-28.124615
 70
    64
  0
VERTEX
  5
463F1EECA80AF6A9
100
AcDbEntity
  8
GRAM
100
AcDbVertex
100
AcDbPolygonMeshVertex
 10
11.5
 20
-236.5
 30
-29.0
 70
    64
  0
VERTEX
  5
463F1EECA80AF6AA
100
AcDbEntity
  8
GRAM
100
AcDbVertex
100
AcDbPolygonMeshVertex
 10
7.099141
 20
-236.5
 30
-28.124615
 70
    64
  0
VERTEX
  5
463F1EECA80AF6AB
100
AcDbEntity
  8
GRAM
100
AcDbVertex
100
AcDbPolygonMeshVertex
 10
3.368272
 20
-236.5
 30
-25.631728
 70
    64
  0
VERTEX
  5
463F1EECA80AF6AC
100
AcDbEntity
  8
GRAM
100
AcDbVertex
100
AcDbPolygonMeshVertex
 10
0.875385
 20
-236.5
 30
-21.900859
 70
    64
  0
VERTEX
  5
463F1EECA80AF6AD
100
AcDbEntity
  8
GRAM
100
AcDbVertex
100
AcDbPolygonMeshVertex
 10
0.0
 20
-236.5
 30
-17.5
 70
    64
  0
VERTEX
  5
463F1EECA80AF6AE
100
AcDbEntity
  8
GRAM
100
AcDbVertex
100
AcDbPolygonMeshVertex
 10
0.875385
 20
-236.5
 30
-13.099141
 70
    64
  0
VERTEX
  5
463F1EECA80AF6AF
100
AcDbEntity
  8
GRAM
100
AcDbVertex
100
AcDbPolygonMeshVertex
 10
3.368272
 20
-236.5
 30
-9.368272
 70
    64
  0
VERTEX
  5
463F1EECA80AF6B0
100
AcDbEntity
  8
GRAM
100
AcDbVertex
100
AcDbPolygonMeshVertex
 10
7.099141
 20
-236.5
 30
-6.875385
 70
    64
  0
VERTEX
  5
463F1EECA80AF6B1
100
AcDbEntity
  8
GRAM
100
AcDbVertex
100
AcDbPolygonMeshVertex
 10
11.5
 20
-236.5
 30
-6.0
 70
    64
  0
VERTEX
  5
463F1EECA80AF6B2
100
AcDbEntity
  8
GRAM
100
AcDbVertex
100
AcDbPolygonMeshVertex
 10
15.900859
 20
-236.5
 30
-6.875385
 70
    64
  0
VERTEX
  5
463F1EECA80AF6B3
100
AcDbEntity
  8
GRAM
100
AcDbVertex
100
AcDbPolygonMeshVertex
 10
19.631728
 20
-236.5
 30
-9.368272
 70
    64
  0
VERTEX
  5
463F1EECA80AF6B4
100
AcDbEntity
  8
GRAM
100
AcDbVertex
100
AcDbPolygonMeshVertex
 10
22.124615
 20
-236.5
 30
-13.099141
 70
    64
  0
VERTEX
  5
463F1EECA80AF6B5
100
AcDbEntity
  8
GRAM
100
AcDbVertex
100
AcDbPolygonMeshVertex
 10
23.0
 20
-111.5
 30
-17.5
 70
    64
  0
VERTEX
  5
463F1EECA80AF6B6
100
AcDbEntity
  8
GRAM
100
AcDbVertex
100
AcDbPolygonMeshVertex
 10
22.124615
 20
-111.5
 30
-21.900859
 70
    64
  0
VERTEX
  5
463F1EECA80AF6B7
100
AcDbEntity
  8
GRAM
100
AcDbVertex
100
AcDbPolygonMeshVertex
 10
19.631728
 20
-111.5
 30
-25.631728
 70
    64
  0
VERTEX
  5
463F1EECA80AF6B8
100
AcDbEntity
  8
GRAM
100
AcDbVertex
100
AcDbPolygonMeshVertex
 10
15.900859
 20
-111.5
 30
-28.124615
 70
    64
  0
VERTEX
  5
463F1EECA80AF6B9
100
AcDbEntity
  8
GRAM
100
AcDbVertex
100
AcDbPolygonMeshVertex
 10
11.5
 20
-111.5
 30
-29.0
 70
    64
  0
VERTEX
  5
463F1EECA80AF6BA
100
AcDbEntity
  8
GRAM
100
AcDbVertex
100
AcDbPolygonMeshVertex
 10
7.099141
 20
-111.5
 30
-28.124615
 70
    64
  0
VERTEX
  5
463F1EECA80AF6BB
100
AcDbEntity
  8
GRAM
100
AcDbVertex
100
AcDbPolygonMeshVertex
 10
3.368272
 20
-111.5
 30
-25.631728
 70
    64
  0
VERTEX
  5
463F1EECA80AF6BC
100
AcDbEntity
  8
GRAM
100
AcDbVertex
100
AcDbPolygonMeshVertex
 10
0.875385
 20
-111.5
 30
-21.900859
 70
    64
  0
VERTEX
  5
463F1EECA80AF6BD
100
AcDbEntity
  8
GRAM
100
AcDbVertex
100
AcDbPolygonMeshVertex
 10
0.0
 20
-111.5
 30
-17.5
 70
    64
  0
VERTEX
  5
463F1EECA80AF6BE
100
AcDbEntity
  8
GRAM
100
AcDbVertex
100
AcDbPolygonMeshVertex
 10
0.875385
 20
-111.5
 30
-13.099141
 70
    64
  0
VERTEX
  5
463F1EECA80AF6BF
100
AcDbEntity
  8
GRAM
100
AcDbVertex
100
AcDbPolygonMeshVertex
 10
3.368272
 20
-111.5
 30
-9.368272
 70
    64
  0
VERTEX
  5
463F1EECA80AF6C0
100
AcDbEntity
  8
GRAM
100
AcDbVertex
100
AcDbPolygonMeshVertex
 10
7.099141
 20
-111.5
 30
-6.875385
 70
    64
  0
VERTEX
  5
463F1EECA80AF6C1
100
AcDbEntity
  8
GRAM
100
AcDbVertex
100
AcDbPolygonMeshVertex
 10
11.5
 20
-111.5
 30
-6.0
 70
    64
  0
VERTEX
  5
463F1EECA80AF6C2
100
AcDbEntity
  8
GRAM
100
AcDbVertex
100
AcDbPolygonMeshVertex
 10
15.900859
 20
-111.5
 30
-6.875385
 70
    64
  0
VERTEX
  5
463F1EECA80AF6C3
100
AcDbEntity
  8
GRAM
100
AcDbVertex
100
AcDbPolygonMeshVertex
 10
19.631728
 20
-111.5
 30
-9.368272
 70
    64
  0
VERTEX
  5
463F1EECA80AF6C4
100
AcDbEntity
  8
GRAM
100
AcDbVertex
100
AcDbPolygonMeshVertex
 10
22.124615
 20
-111.5
 30
-13.099141
 70
    64
  0
SEQEND
  5
463F1EECA80AF6C5
100
AcDbEntity
  8
GRAM
  0
LINE
  5
463F1EECA80AF67D
100
AcDbEntity
  8
GRAM
100
AcDbLine
 10
0.0
 20
-236.5
 30
-17.5
 11
11.5
 21
-236.5
 31
-17.5
  0
3DFACE
  5
C190C65A503D8D87
100
AcDbEntity
  8
GRAM
100
AcDbFace
 10
-724.0
 20
0.0
 30
-35.0
 11
-724.0
 21
0.0
 31
0.0
 12
0.0
 22
0.0
 32
0.0
 13
0.0
 23
0.0
 33
-35.0
  0
ENDBLK
  5
CAED7997BA0443CA
100
AcDbEntity
  8
0
100
AcDbBlockEnd
  0
BLOCK
  5
F64A92D2A55AE3E
100
AcDbEntity
  8
0
100
AcDbBlockBegin
  2
FR60
 70
     0
 10
0.0
 20
0.0
 30
0.0
  3
FR60
  1

  0
3DFACE
  5
221E2DFF0FC9AFEC
100
AcDbEntity
  8
50
100
AcDbFace
 10
770.0
 20
-441.5
 30
50.0
 11
770.0
 21
0.0
 31
50.0
 12
770.0
 22
0.0
 32
0.0
 13
770.0
 23
-428.1
 33
0.0
  0
3DFACE
  5
221E2DFF0FC9AFA9
100
AcDbEntity
  8
50
100
AcDbFace
 10
0.0
 20
-441.5
 30
50.0
 11
0.0
 21
0.0
 31
50.0
 12
0.0
 22
0.0
 32
0.0
 13
0.0
 23
-428.1
 33
0.0
  0
3DFACE
  5
221E2DFF0FC9AF85
100
AcDbEntity
  8
GRAM
100
AcDbFace
 10
0.0
 20
-441.5
 30
50.0
 11
770.0
 21
-441.5
 31
50.0
 12
770.0
 22
0.0
 32
50.0
 13
0.0
 23
0.0
 33
50.0
  0
INSERT
  5
6695436EE28C40B2
100
AcDbEntity
  8
50
100
AcDbMInsertBlock
  2
HUL
 10
44.0
 20
-380.0
 30
50.0
 70
    32
 44
22.0
  0
INSERT
  5
6695436EE28C40B1
100
AcDbEntity
  8
50
100
AcDbMInsertBlock
  2
HUL
 10
44.0
 20
-315.0
 30
50.0
 70
    32
 44
22.0
  0
INSERT
  5
6695436EE28C40B0
100
AcDbEntity
  8
50
100
AcDbMInsertBlock
  2
HUL
 10
44.0
 20
-88.0
 30
50.0
 70
    32
 44
22.0
  0
INSERT
  5
6695436EE28C40AF
100
AcDbEntity
  8
50
100
AcDbMInsertBlock
  2
HUL
 10
44.0
 20
-23.0
 30
50.0
 70
    32
 44
22.0
  0
3DFACE
  5
221E2DFF0FC9AF80
100
AcDbEntity
  8
50
100
AcDbFace
 10
0.0
 20
0.0
 30
50.0
 11
770.0
 21
0.0
 31
50.0
 12
770.0
 22
0.0
 32
0.0
 13
0.0
 23
0.0
 33
0.0
  0
ENDBLK
  5
6695436EE28C40B4
100
AcDbEntity
  8
0
100
AcDbBlockEnd
  0
BLOCK
  5
BA680ACC8D159AE2
100
AcDbEntity
  8
0
100
AcDbBlockBegin
  2
GRAMSK
 70
     0
 10
0.0
 20
0.0
 30
0.0
  3
GRAMSK
  1

  0
INSERT
  5
8E4D41D28DDE7182
100
AcDbEntity
  8
GRAM
100
AcDbBlockReference
  2
GRAMLOGO
 10
-72.0
 20
-17.102223
 30
0.023543
 41
2.0
 42
2.0
 43
2.0
  0
LINE
  5
8E4D41D28DDE7186
100
AcDbEntity
  8
GRAM
100
AcDbLine
 10
-2.0
 20
-21.0
 30
0.0
 11
-89.0
 21
-21.0
 31
0.0
  0
LINE
  5
8E4D41D28DDE7185
100
AcDbEntity
  8
GRAM
100
AcDbLine
 10
0.0
 20
-23.0
 30
0.0
 11
-91.0
 21
-23.0
 31
0.0
  0
LINE
  5
8E4D41D28DDE7184
100
AcDbEntity
  8
GRAM
100
AcDbLine
 10
-91.0
 20
2.0
 30
0.0
 11
0.0
 21
2.0
 31
0.0
  0
LINE
  5
8E4D41D28DDE7183
100
AcDbEntity
  8
GRAM
100
AcDbLine
 10
-89.0
 20
0.0
 30
0.0
 11
-2.0
 21
0.0
 31
0.0
  0
LINE
  5
8E4D41D28DDE718D
100
AcDbEntity
  8
GRAM
100
AcDbLine
 10
-93.0
 20
-21.0
 30
0.0
 11
-93.0
 21
0.0
 31
0.0
  0
LINE
  5
8E4D41D28DDE718C
100
AcDbEntity
  8
GRAM
100
AcDbLine
 10
-91.0
 20
-19.0
 30
0.0
 11
-91.0
 21
-2.0
 31
0.0
  0
ARC
  5
8E4D41D28DDE718B
100
AcDbEntity
  8
GRAM
100
AcDbCircle
 10
-91.0
 20
-21.0
 30
0.0
 40
2.0
100
AcDbArc
 50
180.0
 51
270.0
  0
ARC
  5
8E4D41D28DDE718A
100
AcDbEntity
  8
GRAM
100
AcDbCircle
 10
-89.0
 20
-19.0
 30
0.0
 40
2.0
100
AcDbArc
 50
180.0
 51
270.0
  0
ARC
  5
8E4D41D28DDE7189
100
AcDbEntity
  8
GRAM
100
AcDbCircle
 10
-91.0
 20
0.0
 30
0.0
 40
2.0
100
AcDbArc
 50
90.0
 51
180.0
  0
ARC
  5
8E4D41D28DDE7188
100
AcDbEntity
  8
GRAM
100
AcDbCircle
 10
-89.0
 20
-2.0
 30
0.0
 40
2.0
100
AcDbArc
 50
90.0
 51
180.0
  0
ARC
  5
8E4D41D28DDE7187
100
AcDbEntity
  8
GRAM
100
AcDbCircle
 10
-89.0
 20
-2.0
 30
0.0
 40
2.0
100
AcDbArc
 50
90.0
 51
180.0
  0
LINE
  5
8E4D41D28DDE7196
100
AcDbEntity
  8
GRAM
100
AcDbLine
 10
2.0
 20
-21.0
 30
0.0
 11
2.0
 21
0.0
 31
0.0
210
0.0
220
0.2588190451025205
230
0.9659258262890684
  0
LINE
  5
8E4D41D28DDE7195
100
AcDbEntity
  8
GRAM
100
AcDbLine
 10
0.0
 20
-19.0
 30
0.0
 11
0.0
 21
-2.0
 31
0.0
  0
LINE
  5
8E4D41D28DDE7194
100
AcDbEntity
  8
GRAM
100
AcDbLine
 10
0.0
 20
-2.0
 30
0.0
 11
0.0
 21
-19.0
 31
0.0
  0
ARC
  5
8E4D41D28DDE7193
100
AcDbEntity
  8
GRAM
100
AcDbCircle
 10
0.0
 20
-21.0
 30
0.0
 40
2.0
100
AcDbArc
 50
270.0
 51
0.0
  0
ARC
  5
8E4D41D28DDE7192
100
AcDbEntity
  8
GRAM
100
AcDbCircle
 10
-2.0
 20
-19.0
 30
0.0
 40
2.0
100
AcDbArc
 50
270.0
 51
0.0
  0
ARC
  5
8E4D41D28DDE7191
100
AcDbEntity
  8
GRAM
100
AcDbCircle
 10
0.0
 20
0.0
 30
0.0
 40
2.0
100
AcDbArc
 50
0.0
 51
90.0
  0
ARC
  5
8E4D41D28DDE7190
100
AcDbEntity
  8
GRAM
100
AcDbCircle
 10
-2.0
 20
-2.0
 30
0.0
 40
2.0
100
AcDbArc
 50
0.0
 51
90.0
  0
ARC
  5
8E4D41D28DDE718F
100
AcDbEntity
  8
GRAM
100
AcDbCircle
 10
-2.0
 20
-2.0
 30
0.0
 40
2.0
100
AcDbArc
 50
0.0
 51
90.0
  0
ARC
  5
8E4D41D28DDE718E
100
AcDbEntity
  8
GRAM
100
AcDbCircle
 10
-2.0
 20
-2.0
 30
0.0
 40
2.0
100
AcDbArc
 50
360.0
 51
90.0
  0
ENDBLK
  5
8E4D41D28DDE7198
100
AcDbEntity
  8
0
100
AcDbBlockEnd
  0
ENDSEC
  0
SECTION
  2
ENTITIES
  0
LINE
  5
EE8EDDBCEA3F2C4A
100
AcDbEntity
  8
206
100
AcDbLine
 10
763.5
 20
-957.5
 30
13.9
 11
763.5
 21
-1693.0
 31
13.9
  0
ARC
  5
EE8EDDBCEA3F2C4B
100
AcDbEntity
  8
206
100
AcDbCircle
 10
763.5
 20
-957.5
 30
13.9
 40
735.5
100
AcDbArc
 50
180.0
 51
270.0
  0
3DFACE
  5
EE8EDDBCEA3F2C3D
100
AcDbEntity
  8
GRAM
100
AcDbFace
 10
60.0
 20
-60.0
 30
0.0
 11
720.0
 21
-60.0
 31
0.0
 12
720.0
 22
-60.0
 32
1545.0
 13
60.0
 23
-60.0
 33
1545.0
  0
3DFACE
  5
EE8EDDBCEA3F2C3E
100
AcDbEntity
  8
GRAM
100
AcDbFace
 10
0.0
 20
0.0
 30
0.0
 11
780.0
 21
0.0
 31
0.0
 12
780.0
 22
0.0
 32
1755.0
 13
0.0
 23
0.0
 33
1755.0
 70
     4
  0
3DFACE
  5
EE8EDDBCEA3F2C3F
100
AcDbEntity
  8
GRAM
100
AcDbFace
 10
720.0
 20
-865.0
 30
0.0
 11
530.0
 21
-865.0
 31
0.0
 12
530.0
 22
-865.0
 32
1545.0
 13
720.0
 23
-865.0
 33
1545.0
  0
INSERT
  5
EE8EDDBCEA3F2C40
100
AcDbEntity
  8
GRAM
100
AcDbBlockReference
  2
D-KPS60
 10
752.0
 20
1574.9
 30
975.0
210
0.0
220
-1.0
230
0.0
  0
3DFACE
  5
EE8EDDBCEA3F2C41
100
AcDbEntity
  8
GRAM
100
AcDbFace
 10
720.0
 20
-925.0
 30
0.0
 11
780.0
 21
-925.0
 31
0.0
 12
780.0
 22
-925.0
 32
2215.0
 13
720.0
 23
-925.0
 33
2215.0
  0
3DFACE
  5
EE8EDDBCEA3F2C42
100
AcDbEntity
  8
GRAM
100
AcDbFace
 10
0.0
 20
-925.0
 30
0.0
 11
60.0
 21
-925.0
 31
0.0
 12
60.0
 22
-925.0
 32
2215.0
 13
0.0
 23
-925.0
 33
2215.0
  0
3DFACE
  5
EE8EDDBCEA3F2C43
100
AcDbEntity
  8
GRAM
100
AcDbFace
 10
780.0
 20
0.0
 30
0.0
 11
780.0
 21
-925.0
 31
0.0
 12
780.0
 22
-925.0
 32
2215.0
 13
780.0
 23
0.0
 33
2215.0
  0
3DFACE
  5
EE8EDDBCEA3F2C44
100
AcDbEntity
  8
GRAM
100
AcDbFace
 10
60.0
 20
-925.0
 30
0.0
 11
60.0
 21
-925.0
 31
1545.0
 12
60.0
 22
-60.0
 32
1545.0
 13
60.0
 23
-60.0
 33
0.0
  0
3DFACE
  5
EE8EDDBCEA3F2C45
100
AcDbEntity
  8
GRAM
100
AcDbFace
 10
720.0
 20
-925.0
 30
0.0
 11
720.0
 21
-925.0
 31
1545.0
 12
720.0
 22
-60.0
 32
1545.0
 13
720.0
 23
-60.0
 33
0.0
  0
3DFACE
  5
EE8EDDBCEA3F2C46
100
AcDbEntity
  8
GRAM
100
AcDbFace
 10
530.0
 20
-865.0
 30
0.0
 11
530.0
 21
-60.0
 31
0.0
 12
530.0
 22
-60.0
 32
1545.0
 13
530.0
 23
-865.0
 33
1545.0
  0
3DFACE
  5
EE8EDDBCEA3F2C47
100
AcDbEntity
  8
GRAM
100
AcDbFace
 10
0.0
 20
0.0
 30
0.0
 11
0.0
 21
-925.0
 31
0.0
 12
0.0
 22
-925.0
 32
2215.0
 13
0.0
 23
0.0
 33
2215.0
  0
3DFACE
  5
EE8EDDBCEA3F2C49
100
AcDbEntity
  8
GRAM
100
AcDbFace
 10
0.0
 20
-60.0
 30
0.0
 11
60.0
 21
-60.0
 31
0.0
 12
60.0
 22
-925.0
 32
0.0
 13
0.0
 23
-925.0
 33
0.0
 70
     1
  0
3DFACE
  5
EE8EDDBCEA3F2C50
100
AcDbEntity
  8
GRAM
100
AcDbFace
 10
780.0
 20
0.0
 30
0.0
 11
0.0
 21
0.0
 31
0.0
 12
0.0
 22
-60.0
 32
0.0
 13
780.0
 23
-60.0
 33
0.0
 70
     4
  0
ATTDEF
  5
DD1DBB79D47E5D0A
100
AcDbEntity
  8
650
100
AcDbText
 10
-98.214286
 20
-1255.0
 30
0.0
 40
25.0
  1
GRAM A/S
 72
     1
 11
0.0
 21
-1255.0
 31
0.0
100
AcDbAttributeDefinition
  3
MFT
  2
MFT
 70
     9
  0
ATTDEF
  5
DD1DBB79D47E5D0B
100
AcDbEntity
  8
650
100
AcDbText
 10
-122.02381
 20
-1305.0
 30
0.0
 40
25.0
  1
KPS 60 HAV
 72
     1
 11
0.0
 21
-1305.0
 31
0.0
100
AcDbAttributeDefinition
  3
DES
  2
DES
 70
     9
  0
ATTDEF
  5
EE8EDDBCEA3F2C4F
100
AcDbEntity
  8
650
100
AcDbText
 10
0.0
 20
-1187.5
 30
0.0
 40
25.0
  1

 72
     1
 11
0.0
 21
-1175.0
 31
0.0
100
AcDbAttributeDefinition
  3
ITEM
  2
ITEM
 70
     0
 74
     2
  0
CIRCLE
  5
EE8EDDBCEA3F2C4C
100
AcDbEntity
  8
650
100
AcDbCircle
 10
0.0
 20
-1175.0
 30
0.0
 40
40.0
  0
3DFACE
  5
EE8EDDBCEA3F2C48
100
AcDbEntity
  8
GRAM
100
AcDbFace
 10
720.0
 20
-60.0
 30
0.0
 11
780.0
 21
-60.0
 31
0.0
 12
780.0
 22
-925.0
 32
0.0
 13
720.0
 23
-925.0
 33
0.0
 70
     1
  0
INSERT
  5
EE8EDDBCEA3F2C51
100
AcDbEntity
  8
470
100
AcDbBlockReference
  2
D
 10
710.0
 20
30.0
 30
85.0
 50
180.0
  0
3DFACE
  5
EE8EDDBCEA3F2D71
100
AcDbEntity
  8
GRAM
100
AcDbFace
 10
0.0
 20
0.0
 30
1755.0
 11
60.0
 21
0.0
 31
1755.0
 12
60.0
 22
0.0
 32
2215.0
 13
0.0
 23
0.0
 33
2215.0
 70
     1
  0
LINE
  5
EE8EDDBCEA3F2C90
100
AcDbEntity
  8
GRAM
100
AcDbLine
 10
42.5
 20
-979.917562
 30
1598.252591
 11
404.999827
 21
-979.917562
 31
1598.252591
210
0.0
220
-0.9659258262890682
230
-0.2588190451025206
  0
LINE
  5
EE8EDDBCEA3F2C91
100
AcDbEntity
  8
GRAM
100
AcDbLine
 10
42.5
 20
-980.694019
 30
1601.150368
 11
404.999827
 21
-980.694019
 31
1601.150368
210
0.0
220
-0.9659258262890682
230
-0.2588190451025206
  0
LINE
  5
EE8EDDBCEA3F2C94
100
AcDbEntity
  8
GRAM
100
AcDbLine
 10
73.5
 20
-982.635162
 30
1608.394812
 11
50.5
 21
-982.635162
 31
1608.394812
210
0.0
220
-0.9659258262890682
230
-0.2588190451025206
  0
CIRCLE
  5
EE8EDDBCEA3F2D0B
100
AcDbEntity
  8
GRAM
100
AcDbCircle
 10
45.0
 20
-507.869471
 30
1978.414782
 40
12.5
210
0.0
220
-0.2588190451025205
230
0.9659258262890684
  0
POLYLINE
  5
EE8EDDBCEA3F2D0C
100
AcDbEntity
  8
GRAM
100
AcDbPolygonMesh
 66
     1
 10
0.0
 20
0.0
 30
0.0
 70
    48
 71
     2
 72
    16
  0
VERTEX
  5
EE8EDDBCEA3F2D0D
100
AcDbEntity
  8
GRAM
100
AcDbVertex
100
AcDbPolygonMeshVertex
 10
57.5
 20
-1001.062749
 30
1773.760086
 70
    64
  0
VERTEX
  5
EE8EDDBCEA3F2D0E
100
AcDbEntity
  8
GRAM
100
AcDbVertex
100
AcDbPolygonMeshVertex
 10
56.548494
 20
-996.442201
 30
1774.998158
 70
    64
  0
VERTEX
  5
EE8EDDBCEA3F2D0F
100
AcDbEntity
  8
GRAM
100
AcDbVertex
100
AcDbPolygonMeshVertex
 10
53.838835
 20
-992.52509
 30
1776.047745
 70
    64
  0
VERTEX
  5
EE8EDDBCEA3F2D10
100
AcDbEntity
  8
GRAM
100
AcDbVertex
100
AcDbPolygonMeshVertex
 10
49.783543
 20
-989.90776
 30
1776.749057
 70
    64
  0
VERTEX
  5
EE8EDDBCEA3F2D11
100
AcDbEntity
  8
GRAM
100
AcDbVertex
100
AcDbPolygonMeshVertex
 10
45.0
 20
-988.988676
 30
1776.995324
 70
    64
  0
VERTEX
  5
EE8EDDBCEA3F2D12
100
AcDbEntity
  8
GRAM
100
AcDbVertex
100
AcDbPolygonMeshVertex
 10
40.216457
 20
-989.90776
 30
1776.749057
 70
    64
  0
VERTEX
  5
EE8EDDBCEA3F2D13
100
AcDbEntity
  8
GRAM
100
AcDbVertex
100
AcDbPolygonMeshVertex
 10
36.161165
 20
-992.52509
 30
1776.047745
 70
    64
  0
VERTEX
  5
EE8EDDBCEA3F2D14
100
AcDbEntity
  8
GRAM
100
AcDbVertex
100
AcDbPolygonMeshVertex
 10
33.451506
 20
-996.442201
 30
1774.998158
 70
    64
  0
VERTEX
  5
EE8EDDBCEA3F2D15
100
AcDbEntity
  8
GRAM
100
AcDbVertex
100
AcDbPolygonMeshVertex
 10
32.5
 20
-1001.062749
 30
1773.760086
 70
    64
  0
VERTEX
  5
EE8EDDBCEA3F2D16
100
AcDbEntity
  8
GRAM
100
AcDbVertex
100
AcDbPolygonMeshVertex
 10
33.451506
 20
-1005.683297
 30
1772.522014
 70
    64
  0
VERTEX
  5
EE8EDDBCEA3F2D17
100
AcDbEntity
  8
GRAM
100
AcDbVertex
100
AcDbPolygonMeshVertex
 10
36.161165
 20
-1009.600408
 30
1771.472428
 70
    64
  0
VERTEX
  5
EE8EDDBCEA3F2D18
100
AcDbEntity
  8
GRAM
100
AcDbVertex
100
AcDbPolygonMeshVertex
 10
40.216457
 20
-1012.217738
 30
1770.771116
 70
    64
  0
VERTEX
  5
EE8EDDBCEA3F2D19
100
AcDbEntity
  8
GRAM
100
AcDbVertex
100
AcDbPolygonMeshVertex
 10
45.0
 20
-1013.136822
 30
1770.524848
 70
    64
  0
VERTEX
  5
EE8EDDBCEA3F2D1A
100
AcDbEntity
  8
GRAM
100
AcDbVertex
100
AcDbPolygonMeshVertex
 10
49.783543
 20
-1012.217738
 30
1770.771116
 70
    64
  0
VERTEX
  5
EE8EDDBCEA3F2D1B
100
AcDbEntity
  8
GRAM
100
AcDbVertex
100
AcDbPolygonMeshVertex
 10
53.838835
 20
-1009.600408
 30
1771.472428
 70
    64
  0
VERTEX
  5
EE8EDDBCEA3F2D1C
100
AcDbEntity
  8
GRAM
100
AcDbVertex
100
AcDbPolygonMeshVertex
 10
56.548494
 20
-1005.683297
 30
1772.522014
 70
    64
  0
VERTEX
  5
EE8EDDBCEA3F2D1D
100
AcDbEntity
  8
GRAM
100
AcDbVertex
100
AcDbPolygonMeshVertex
 10
57.5
 20
-1002.615663
 30
1779.555641
 70
    64
  0
VERTEX
  5
EE8EDDBCEA3F2D1E
100
AcDbEntity
  8
GRAM
100
AcDbVertex
100
AcDbPolygonMeshVertex
 10
56.548494
 20
-997.995116
 30
1780.793713
 70
    64
  0
VERTEX
  5
EE8EDDBCEA3F2D1F
100
AcDbEntity
  8
GRAM
100
AcDbVertex
100
AcDbPolygonMeshVertex
 10
53.838835
 20
-994.078005
 30
1781.8433
 70
    64
  0
VERTEX
  5
EE8EDDBCEA3F2D20
100
AcDbEntity
  8
GRAM
100
AcDbVertex
100
AcDbPolygonMeshVertex
 10
49.783543
 20
-991.460675
 30
1782.544612
 70
    64
  0
VERTEX
  5
EE8EDDBCEA3F2D21
100
AcDbEntity
  8
GRAM
100
AcDbVertex
100
AcDbPolygonMeshVertex
 10
45.0
 20
-990.541591
 30
1782.790879
 70
    64
  0
VERTEX
  5
EE8EDDBCEA3F2D22
100
AcDbEntity
  8
GRAM
100
AcDbVertex
100
AcDbPolygonMeshVertex
 10
40.216457
 20
-991.460675
 30
1782.544612
 70
    64
  0
VERTEX
  5
EE8EDDBCEA3F2D23
100
AcDbEntity
  8
GRAM
100
AcDbVertex
100
AcDbPolygonMeshVertex
 10
36.161165
 20
-994.078005
 30
1781.8433
 70
    64
  0
VERTEX
  5
EE8EDDBCEA3F2D24
100
AcDbEntity
  8
GRAM
100
AcDbVertex
100
AcDbPolygonMeshVertex
 10
33.451506
 20
-997.995116
 30
1780.793713
 70
    64
  0
VERTEX
  5
EE8EDDBCEA3F2D25
100
AcDbEntity
  8
GRAM
100
AcDbVertex
100
AcDbPolygonMeshVertex
 10
32.5
 20
-1002.615663
 30
1779.555641
 70
    64
  0
VERTEX
  5
EE8EDDBCEA3F2D26
100
AcDbEntity
  8
GRAM
100
AcDbVertex
100
AcDbPolygonMeshVertex
 10
33.451506
 20
-1007.236211
 30
1778.317569
 70
    64
  0
VERTEX
  5
EE8EDDBCEA3F2D27
100
AcDbEntity
  8
GRAM
100
AcDbVertex
100
AcDbPolygonMeshVertex
 10
36.161165
 20
-1011.153322
 30
1777.267983
 70
    64
  0
VERTEX
  5
EE8EDDBCEA3F2D28
100
AcDbEntity
  8
GRAM
100
AcDbVertex
100
AcDbPolygonMeshVertex
 10
40.216457
 20
-1013.770652
 30
1776.566671
 70
    64
  0
VERTEX
  5
EE8EDDBCEA3F2D29
100
AcDbEntity
  8
GRAM
100
AcDbVertex
100
AcDbPolygonMeshVertex
 10
45.0
 20
-1014.689736
 30
1776.320403
 70
    64
  0
VERTEX
  5
EE8EDDBCEA3F2D2A
100
AcDbEntity
  8
GRAM
100
AcDbVertex
100
AcDbPolygonMeshVertex
 10
49.783543
 20
-1013.770652
 30
1776.566671
 70
    64
  0
VERTEX
  5
EE8EDDBCEA3F2D2B
100
AcDbEntity
  8
GRAM
100
AcDbVertex
100
AcDbPolygonMeshVertex
 10
53.838835
 20
-1011.153322
 30
1777.267983
 70
    64
  0
VERTEX
  5
EE8EDDBCEA3F2D2C
100
AcDbEntity
  8
GRAM
100
AcDbVertex
100
AcDbPolygonMeshVertex
 10
56.548494
 20
-1007.236211
 30
1778.317569
 70
    64
  0
SEQEND
  5
EE8EDDBCEA3F2D2D
100
AcDbEntity
  8
GRAM
  0
LINE
  5
EE8EDDBCEA3F2D06
100
AcDbEntity
  8
GRAM
100
AcDbLine
 10
42.5
 20
-994.670247
 30
1653.310363
 11
404.999827
 21
-994.670247
 31
1653.310363
210
0.0
220
-0.9659258262890682
230
-0.2588190451025206
  0
LINE
  5
EE8EDDBCEA3F2D07
100
AcDbEntity
  8
GRAM
100
AcDbLine
 10
42.5
 20
-995.446705
 30
1656.20814
 11
404.999827
 21
-995.446705
 31
1656.20814
210
0.0
220
-0.9659258262890682
230
-0.2588190451025206
  0
LINE
  5
EE8EDDBCEA3F2D0A
100
AcDbEntity
  8
GRAM
100
AcDbLine
 10
73.5
 20
-990.658552
 30
1638.338512
 11
50.5
 21
-990.658552
 31
1638.338512
210
0.0
220
-0.9659258262890682
230
-0.2588190451025206
  0
POLYLINE
  5
EE8EDDBCEA3F2D2E
100
AcDbEntity
  8
GRAM
100
AcDbPolygonMesh
 66
     1
 10
0.0
 20
0.0
 30
0.0
 70
    48
 71
     2
 72
    16
  0
VERTEX
  5
EE8EDDBCEA3F2D2F
100
AcDbEntity
  8
GRAM
100
AcDbVertex
100
AcDbPolygonMeshVertex
 10
65.0
 20
-999.251016
 30
1766.998606
 70
    64
  0
VERTEX
  5
EE8EDDBCEA3F2D30
100
AcDbEntity
  8
GRAM
100
AcDbVertex
100
AcDbPolygonMeshVertex
 10
63.477591
 20
-991.85814
 30
1768.979521
 70
    64
  0
VERTEX
  5
EE8EDDBCEA3F2D31
100
AcDbEntity
  8
GRAM
100
AcDbVertex
100
AcDbPolygonMeshVertex
 10
59.142136
 20
-985.590762
 30
1770.65886
 70
    64
  0
VERTEX
  5
EE8EDDBCEA3F2D32
100
AcDbEntity
  8
GRAM
100
AcDbVertex
100
AcDbPolygonMeshVertex
 10
52.653669
 20
-981.403034
 30
1771.780958
 70
    64
  0
VERTEX
  5
EE8EDDBCEA3F2D33
100
AcDbEntity
  8
GRAM
100
AcDbVertex
100
AcDbPolygonMeshVertex
 10
45.0
 20
-979.932499
 30
1772.174987
 70
    64
  0
VERTEX
  5
EE8EDDBCEA3F2D34
100
AcDbEntity
  8
GRAM
100
AcDbVertex
100
AcDbPolygonMeshVertex
 10
37.346331
 20
-981.403034
 30
1771.780958
 70
    64
  0
VERTEX
  5
EE8EDDBCEA3F2D35
100
AcDbEntity
  8
GRAM
100
AcDbVertex
100
AcDbPolygonMeshVertex
 10
30.857864
 20
-985.590762
 30
1770.65886
 70
    64
  0
VERTEX
  5
EE8EDDBCEA3F2D36
100
AcDbEntity
  8
GRAM
100
AcDbVertex
100
AcDbPolygonMeshVertex
 10
26.522409
 20
-991.85814
 30
1768.979521
 70
    64
  0
VERTEX
  5
EE8EDDBCEA3F2D37
100
AcDbEntity
  8
GRAM
100
AcDbVertex
100
AcDbPolygonMeshVertex
 10
25.0
 20
-999.251016
 30
1766.998606
 70
    64
  0
VERTEX
  5
EE8EDDBCEA3F2D38
100
AcDbEntity
  8
GRAM
100
AcDbVertex
100
AcDbPolygonMeshVertex
 10
26.522409
 20
-1006.643892
 30
1765.01769
 70
    64
  0
VERTEX
  5
EE8EDDBCEA3F2D39
100
AcDbEntity
  8
GRAM
100
AcDbVertex
100
AcDbPolygonMeshVertex
 10
30.857864
 20
-1012.91127
 30
1763.338352
 70
    64
  0
VERTEX
  5
EE8EDDBCEA3F2D3A
100
AcDbEntity
  8
GRAM
100
AcDbVertex
100
AcDbPolygonMeshVertex
 10
37.346331
 20
-1017.098998
 30
1762.216253
 70
    64
  0
VERTEX
  5
EE8EDDBCEA3F2D3B
100
AcDbEntity
  8
GRAM
100
AcDbVertex
100
AcDbPolygonMeshVertex
 10
45.0
 20
-1018.569532
 30
1761.822225
 70
    64
  0
VERTEX
  5
EE8EDDBCEA3F2D3C
100
AcDbEntity
  8
GRAM
100
AcDbVertex
100
AcDbPolygonMeshVertex
 10
52.653669
 20
-1017.098998
 30
1762.216253
 70
    64
  0
VERTEX
  5
EE8EDDBCEA3F2D3D
100
AcDbEntity
  8
GRAM
100
AcDbVertex
100
AcDbPolygonMeshVertex
 10
59.142136
 20
-1012.91127
 30
1763.338352
 70
    64
  0
VERTEX
  5
EE8EDDBCEA3F2D3E
100
AcDbEntity
  8
GRAM
100
AcDbVertex
100
AcDbPolygonMeshVertex
 10
63.477591
 20
-1006.643892
 30
1765.01769
 70
    64
  0
VERTEX
  5
EE8EDDBCEA3F2D3F
100
AcDbEntity
  8
GRAM
100
AcDbVertex
100
AcDbPolygonMeshVertex
 10
65.0
 20
-1001.062749
 30
1773.760086
 70
    64
  0
VERTEX
  5
EE8EDDBCEA3F2D40
100
AcDbEntity
  8
GRAM
100
AcDbVertex
100
AcDbPolygonMeshVertex
 10
63.477591
 20
-993.669873
 30
1775.741002
 70
    64
  0
VERTEX
  5
EE8EDDBCEA3F2D41
100
AcDbEntity
  8
GRAM
100
AcDbVertex
100
AcDbPolygonMeshVertex
 10
59.142136
 20
-987.402495
 30
1777.42034
 70
    64
  0
VERTEX
  5
EE8EDDBCEA3F2D42
100
AcDbEntity
  8
GRAM
100
AcDbVertex
100
AcDbPolygonMeshVertex
 10
52.653669
 20
-983.214767
 30
1778.542439
 70
    64
  0
VERTEX
  5
EE8EDDBCEA3F2D43
100
AcDbEntity
  8
GRAM
100
AcDbVertex
100
AcDbPolygonMeshVertex
 10
45.0
 20
-981.744233
 30
1778.936467
 70
    64
  0
VERTEX
  5
EE8EDDBCEA3F2D44
100
AcDbEntity
  8
GRAM
100
AcDbVertex
100
AcDbPolygonMeshVertex
 10
37.346331
 20
-983.214767
 30
1778.542439
 70
    64
  0
VERTEX
  5
EE8EDDBCEA3F2D45
100
AcDbEntity
  8
GRAM
100
AcDbVertex
100
AcDbPolygonMeshVertex
 10
30.857864
 20
-987.402495
 30
1777.42034
 70
    64
  0
VERTEX
  5
EE8EDDBCEA3F2D46
100
AcDbEntity
  8
GRAM
100
AcDbVertex
100
AcDbPolygonMeshVertex
 10
26.522409
 20
-993.669873
 30
1775.741002
 70
    64
  0
VERTEX
  5
EE8EDDBCEA3F2D47
100
AcDbEntity
  8
GRAM
100
AcDbVertex
100
AcDbPolygonMeshVertex
 10
25.0
 20
-1001.062749
 30
1773.760086
 70
    64
  0
VERTEX
  5
EE8EDDBCEA3F2D48
100
AcDbEntity
  8
GRAM
100
AcDbVertex
100
AcDbPolygonMeshVertex
 10
26.522409
 20
-1008.455625
 30
1771.779171
 70
    64
  0
VERTEX
  5
EE8EDDBCEA3F2D49
100
AcDbEntity
  8
GRAM
100
AcDbVertex
100
AcDbPolygonMeshVertex
 10
30.857864
 20
-1014.723003
 30
1770.099832
 70
    64
  0
VERTEX
  5
EE8EDDBCEA3F2D4A
100
AcDbEntity
  8
GRAM
100
AcDbVertex
100
AcDbPolygonMeshVertex
 10
37.346331
 20
-1018.910731
 30
1768.977734
 70
    64
  0
VERTEX
  5
EE8EDDBCEA3F2D4B
100
AcDbEntity
  8
GRAM
100
AcDbVertex
100
AcDbPolygonMeshVertex
 10
45.0
 20
-1020.381266
 30
1768.583706
 70
    64
  0
VERTEX
  5
EE8EDDBCEA3F2D4C
100
AcDbEntity
  8
GRAM
100
AcDbVertex
100
AcDbPolygonMeshVertex
 10
52.653669
 20
-1018.910731
 30
1768.977734
 70
    64
  0
VERTEX
  5
EE8EDDBCEA3F2D4D
100
AcDbEntity
  8
GRAM
100
AcDbVertex
100
AcDbPolygonMeshVertex
 10
59.142136
 20
-1014.723003
 30
1770.099832
 70
    64
  0
VERTEX
  5
EE8EDDBCEA3F2D4E
100
AcDbEntity
  8
GRAM
100
AcDbVertex
100
AcDbPolygonMeshVertex
 10
63.477591
 20
-1008.455625
 30
1771.779171
 70
    64
  0
SEQEND
  5
EE8EDDBCEA3F2D4F
100
AcDbEntity
  8
GRAM
  0
CIRCLE
  5
EE8EDDBCEA3F2D50
100
AcDbEntity
  8
GRAM
100
AcDbCircle
 10
45.0
 20
-507.869471
 30
1972.414782
 40
20.0
210
0.0
220
-0.2588190451025205
230
0.9659258262890684
  0
3DFACE
  5
EE8EDDBCEA3F2C57
100
AcDbEntity
  8
GRAM
100
AcDbFace
 10
0.0
 20
-925.0
 30
2215.0
 11
60.0
 21
-925.0
 31
2215.0
 12
60.0
 22
0.0
 32
2215.0
 13
0.0
 23
0.0
 33
2215.0
  0
INSERT
  5
EE8EDDBCEA3F2C58
100
AcDbEntity
  8
GRAM
100
AcDbBlockReference
  2
FR60
 10
5.0
 20
2215.0
 30
925.0
210
0.0
220
-1.0
230
0.0
  0
3DFACE
  5
EE8EDDBCEA3F2C5A
100
AcDbEntity
  8
GRAM
100
AcDbFace
 10
5.0
 20
-925.0
 30
1579.9
 11
5.0
 21
-925.0
 31
1786.9
 12
775.0
 22
-925.0
 32
1786.9
 13
775.0
 23
-925.0
 33
1579.9
  0
3DFACE
  5
EE8EDDBCEA3F2C5B
100
AcDbEntity
  8
GRAM
100
AcDbFace
 10
5.0
 20
-1023.399161
 30
1760.52813
 11
775.0
 21
-1023.399161
 31
1760.52813
 12
775.0
 22
-975.0
 32
1579.9
 13
5.0
 23
-975.0
 33
1579.9
  0
3DFACE
  5
EE8EDDBCEA3F2C8F
100
AcDbEntity
  8
GRAM
100
AcDbFace
 10
5.0
 20
-925.0
 30
1579.9
 11
775.0
 21
-925.0
 31
1579.9
 12
775.0
 22
-975.0
 32
1579.9
 13
5.0
 23
-975.0
 33
1579.9
  0
3DFACE
  5
EE8EDDBCEA3F2D05
100
AcDbEntity
  8
GRAM
100
AcDbFace
 10
5.0
 20
-925.0
 30
1786.9
 11
775.0
 21
-925.0
 31
1786.9
 12
775.0
 22
-1023.399161
 32
1760.52813
 13
5.0
 23
-1023.399161
 33
1760.52813
  0
3DFACE
  5
EE8EDDBCEA3F2C5C
100
AcDbEntity
  8
GRAM
100
AcDbFace
 10
5.0
 20
-1023.399161
 30
1760.52813
 11
5.0
 21
-925.0
 31
1786.9
 12
5.0
 22
-925.0
 32
1579.9
 13
5.0
 23
-975.0
 33
1579.9
  0
LINE
  5
EE8EDDBCEA3F2C5D
100
AcDbEntity
  8
GRAM
100
AcDbLine
 10
37.5
 20
-993.376152
 30
1648.480734
 11
37.5
 21
-981.988114
 31
1605.979997
210
0.0
220
-0.9659258262890682
230
-0.2588190451025206
  0
LINE
  5
EE8EDDBCEA3F2C5E
100
AcDbEntity
  8
GRAM
100
AcDbLine
 10
34.5
 20
-993.376152
 30
1648.480734
 11
34.5
 21
-981.988114
 31
1605.979997
210
0.0
220
-0.9659258262890682
230
-0.2588190451025206
  0
LINE
  5
EE8EDDBCEA3F2C60
100
AcDbEntity
  8
GRAM
100
AcDbLine
 10
50.5
 20
-982.635162
 30
1608.394812
 11
50.5
 21
-990.658552
 31
1638.338512
210
0.0
220
-0.9659258262890682
230
-0.2588190451025206
  0
ARC
  5
EE8EDDBCEA3F2C92
100
AcDbEntity
  8
GRAM
100
AcDbCircle
 10
42.5
 20
1805.414782
 30
532.869471
 40
8.0
210
0.0
220
-0.9659258262890682
230
-0.2588190451025206
100
AcDbArc
 50
180.0
 51
270.0
  0
ARC
  5
EE8EDDBCEA3F2C93
100
AcDbEntity
  8
GRAM
100
AcDbCircle
 10
42.5
 20
1805.414782
 30
532.869471
 40
5.0
210
0.0
220
-0.9659258262890682
230
-0.2588190451025206
100
AcDbArc
 50
180.0
 51
270.0
  0
ARC
  5
EE8EDDBCEA3F2D08
100
AcDbEntity
  8
GRAM
100
AcDbCircle
 10
42.5
 20
1849.414782
 30
532.869471
 40
8.0
210
0.0
220
-0.9659258262890682
230
-0.2588190451025206
100
AcDbArc
 50
90.0
 51
180.0
  0
ARC
  5
EE8EDDBCEA3F2D09
100
AcDbEntity
  8
GRAM
100
AcDbCircle
 10
42.5
 20
1849.414782
 30
532.869471
 40
5.0
210
0.0
220
-0.9659258262890682
230
-0.2588190451025206
100
AcDbArc
 50
90.0
 51
180.0
  0
3DFACE
  5
EE8EDDBCEA3F2D70
100
AcDbEntity
  8
GRAM
100
AcDbFace
 10
720.0
 20
0.0
 30
1755.0
 11
780.0
 21
0.0
 31
1755.0
 12
780.0
 22
0.0
 32
2215.0
 13
720.0
 23
0.0
 33
2215.0
 70
     1
  0
3DFACE
  5
EE8EDDBCEA3F2C53
100
AcDbEntity
  8
GRAM
100
AcDbFace
 10
720.0
 20
-925.0
 30
1755.0
 11
720.0
 21
-925.0
 31
2215.0
 12
720.0
 22
0.0
 32
2215.0
 13
720.0
 23
0.0
 33
1755.0
  0
3DFACE
  5
EE8EDDBCEA3F2C52
100
AcDbEntity
  8
GRAM
100
AcDbFace
 10
60.0
 20
-925.0
 30
1755.0
 11
60.0
 21
-925.0
 31
2215.0
 12
60.0
 22
0.0
 32
2215.0
 13
60.0
 23
0.0
 33
1755.0
  0
3DFACE
  5
EE8EDDBCEA3F2C54
100
AcDbEntity
  8
GRAM
100
AcDbFace
 10
60.0
 20
-925.0
 30
1545.0
 11
720.0
 21
-925.0
 31
1545.0
 12
720.0
 22
-60.0
 32
1545.0
 13
60.0
 23
-60.0
 33
1545.0
  0
3DFACE
  5
EE8EDDBCEA3F2C55
100
AcDbEntity
  8
GRAM
100
AcDbFace
 10
60.0
 20
-925.0
 30
1755.0
 11
720.0
 21
-925.0
 31
1755.0
 12
720.0
 22
0.0
 32
1755.0
 13
60.0
 23
0.0
 33
1755.0
  0
3DFACE
  5
EE8EDDBCEA3F2C8E
100
AcDbEntity
  8
GRAM
100
AcDbFace
 10
775.0
 20
-975.0
 30
1579.9
 11
775.0
 21
-925.0
 31
1579.9
 12
775.0
 22
-925.0
 32
1786.9
 13
775.0
 23
-1023.399161
 33
1760.52813
  0
LINE
  5
EE8EDDBCEA3F2C61
100
AcDbEntity
  8
GRAM
100
AcDbLine
 10
135.000173
 20
-992.600892
 30
1645.587423
 11
135.000173
 21
-988.459787
 31
1630.13261
210
0.0
220
-0.9659258262890682
230
-0.2588190451025206
  0
LINE
  5
EE8EDDBCEA3F2C62
100
AcDbEntity
  8
GRAM
100
AcDbLine
 10
243.000173
 20
-992.859711
 30
1646.553349
 11
243.000173
 21
-988.200968
 31
1629.166684
210
0.0
220
-0.9659258262890682
230
-0.2588190451025206
  0
CIRCLE
  5
EE8EDDBCEA3F2C63
100
AcDbEntity
  8
GRAM
100
AcDbCircle
 10
194.000173
 20
1838.419406
 30
532.869471
 40
2.5
210
0.0
220
-0.9659258262890682
230
-0.2588190451025206
  0
LINE
  5
EE8EDDBCEA3F2C64
100
AcDbEntity
  8
GRAM
100
AcDbLine
 10
205.000173
 20
-992.859711
 30
1646.553349
 11
205.000173
 21
-988.200968
 31
1629.166684
210
0.0
220
-0.9659258262890682
230
-0.2588190451025206
  0
LINE
  5
EE8EDDBCEA3F2C65
100
AcDbEntity
  8
GRAM
100
AcDbLine
 10
318.000173
 20
-992.600892
 30
1645.587423
 11
318.000173
 21
-988.459787
 31
1630.13261
210
0.0
220
-0.9659258262890682
230
-0.2588190451025206
  0
LINE
  5
EE8EDDBCEA3F2C66
100
AcDbEntity
  8
GRAM
100
AcDbLine
 10
272.974944
 20
-992.076901
 30
1643.631862
 11
266.123331
 21
-988.971072
 31
1632.040752
210
0.0
220
-0.9659258262890682
230
-0.2588190451025206
  0
LINE
  5
EE8EDDBCEA3F2C67
100
AcDbEntity
  8
GRAM
100
AcDbLine
 10
270.096138
 20
-992.076901
 30
1643.631862
 11
263.244525
 21
-988.971072
 31
1632.040752
210
0.0
220
-0.9659258262890682
230
-0.2588190451025206
  0
LWPOLYLINE
  5
EE8EDDBCEA3F2C68
100
AcDbEntity
  8
GRAM
100
AcDbPolyline
 90
       12
 70
     0
 43
0.0
 38
532.869471
 10
256.026584
 20
1841.894861
 42
0.115836
 10
255.273491
 20
1841.718017
 42
0.104065
 10
254.411603
 20
1841.037041
 42
0.09084
 10
253.782759
 20
1839.922141
 42
0.083285
 10
253.526584
 20
1838.394861
 42
0.083285
 10
253.782759
 20
1836.867581
 42
0.09084
 10
254.411603
 20
1835.752681
 42
0.104065
 10
255.273491
 20
1835.071705
 42
0.115836
 10
256.026584
 20
1834.894861
 42
0.115836
 10
256.779676
 20
1835.071705
 42
0.104065
 10
257.641565
 20
1835.752681
 42
0.054414
 10
258.067846
 20
1836.394861
 42
0.083285
210
0.0
220
-0.9659258262890682
230
-0.2588190451025206
  0
LWPOLYLINE
  5
EE8EDDBCEA3F2C76
100
AcDbEntity
  8
GRAM
100
AcDbPolyline
 90
       13
 70
     0
 43
0.0
 38
532.869471
 10
256.026584
 20
1844.394861
 42
0.115836
 10
254.160733
 20
1843.956715
 42
0.104065
 10
252.49105
 20
1842.637502
 42
0.09084
 10
251.419582
 20
1840.737857
 42
0.083285
 10
251.026584
 20
1838.394861
 42
0.083285
 10
251.419582
 20
1836.051865
 42
0.09084
 10
252.49105
 20
1834.15222
 42
0.104065
 10
254.160733
 20
1832.833007
 42
0.115836
 10
256.026584
 20
1832.394861
 42
0.115836
 10
257.892435
 20
1832.833007
 42
0.104065
 10
259.562118
 20
1834.15222
 42
0.09084
 10
260.633585
 20
1836.051865
 42
0.01253
 10
260.742441
 20
1836.394861
 42
0.083285
210
0.0
220
-0.9659258262890682
230
-0.2588190451025206
  0
LINE
  5
EE8EDDBCEA3F2C85
100
AcDbEntity
  8
GRAM
100
AcDbLine
 10
284.43924
 20
-990.345944
 30
1637.171843
 11
284.43924
 21
-988.971072
 31
1632.040752
210
0.0
220
-0.9659258262890682
230
-0.2588190451025206
  0
LINE
  5
EE8EDDBCEA3F2C86
100
AcDbEntity
  8
GRAM
100
AcDbLine
 10
275.706066
 20
-992.076901
 30
1643.631862
 11
275.706066
 21
-988.971072
 31
1632.040752
210
0.0
220
-0.9659258262890682
230
-0.2588190451025206
  0
LINE
  5
EE8EDDBCEA3F2C87
100
AcDbEntity
  8
GRAM
100
AcDbLine
 10
281.93924
 20
-990.301452
 30
1637.005797
 11
281.93924
 21
-988.971072
 31
1632.040752
210
0.0
220
-0.9659258262890682
230
-0.2588190451025206
  0
LINE
  5
EE8EDDBCEA3F2C88
100
AcDbEntity
  8
GRAM
100
AcDbLine
 10
278.206066
 20
-990.313105
 30
1637.049288
 11
278.206066
 21
-988.971072
 31
1632.040752
210
0.0
220
-0.9659258262890682
230
-0.2588190451025206
  0
INSERT
  5
EE8EDDBCEA3F2C89
100
AcDbEntity
  8
GRAM
100
AcDbBlockReference
  2
PIL
 10
347.5
 20
1844.701506
 30
532.869471
 41
-1.410947
 42
1.410947
 43
1.410947
 50
90.0
210
0.0
220
-0.9659258262890682
230
-0.2588190451025206
  0
LINE
  5
EE8EDDBCEA3F2C8A
100
AcDbEntity
  8
GRAM
100
AcDbLine
 10
339.5
 20
-992.600892
 30
1645.587423
 11
339.5
 21
-988.977425
 31
1632.064461
210
0.0
220
-0.9659258262890682
230
-0.2588190451025206
  0
LINE
  5
EE8EDDBCEA3F2C8B
100
AcDbEntity
  8
GRAM
100
AcDbLine
 10
355.5
 20
-992.600892
 30
1645.587423
 11
355.5
 21
-988.977425
 31
1632.064461
210
0.0
220
-0.9659258262890682
230
-0.2588190451025206
  0
LINE
  5
EE8EDDBCEA3F2C5F
100
AcDbEntity
  8
GRAM
100
AcDbLine
 10
73.5
 20
-982.635162
 30
1608.394812
 11
73.5
 21
-990.658552
 31
1638.338512
210
0.0
220
-0.9659258262890682
230
-0.2588190451025206
  0
LINE
  5
EE8EDDBCEA3F2C8C
100
AcDbEntity
  8
GRAM
100
AcDbLine
 10
409.999827
 20
-993.376152
 30
1648.480734
 11
409.999827
 21
-981.988114
 31
1605.979997
210
0.0
220
-0.9659258262890682
230
-0.2588190451025206
  0
LINE
  5
EE8EDDBCEA3F2C8D
100
AcDbEntity
  8
GRAM
100
AcDbLine
 10
412.999827
 20
-993.376152
 30
1648.480734
 11
412.999827
 21
-981.988114
 31
1605.979997
210
0.0
220
-0.9659258262890682
230
-0.2588190451025206
  0
3DFACE
  5
EE8EDDBCEA3F2C59
100
AcDbEntity
  8
GRAM
100
AcDbFace
 10
60.0
 20
-925.0
 30
1545.0
 11
720.0
 21
-925.0
 31
1545.0
 12
720.0
 22
-925.0
 32
1755.0
 13
60.0
 23
-925.0
 33
1755.0
  0
LINE
  5
EE8EDDBCEA3F2C9A
100
AcDbEntity
  8
GRAM
100
AcDbLine
 10
136.000173
 20
-988.200968
 30
1629.166684
 11
317.000173
 21
-988.200968
 31
1629.166684
210
0.0
220
-0.9659258262890682
230
-0.2588190451025206
  0
ARC
  5
EE8EDDBCEA3F2C9B
100
AcDbEntity
  8
GRAM
100
AcDbCircle
 10
136.000173
 20
1830.419406
 30
532.869471
 40
1.0
210
0.0
220
-0.9659258262890682
230
-0.2588190451025206
100
AcDbArc
 50
180.0
 51
270.0
  0
LINE
  5
EE8EDDBCEA3F2C95
100
AcDbEntity
  8
GRAM
100
AcDbLine
 10
285.990173
 20
-982.505752
 30
1607.911849
 11
271.990173
 21
-982.505752
 31
1607.911849
210
0.0
220
-0.9659258262890682
230
-0.2588190451025206
  0
LINE
  5
EE8EDDBCEA3F2C97
100
AcDbEntity
  8
GRAM
100
AcDbLine
 10
282.574155
 20
-983.309077
 30
1610.909896
 11
285.732995
 21
-982.851056
 31
1609.20054
210
0.0
220
-0.9659258262890682
230
-0.2588190451025206
  0
LINE
  5
EE8EDDBCEA3F2C98
100
AcDbEntity
  8
GRAM
100
AcDbLine
 10
283.93628
 20
-983.680483
 30
1612.296005
 11
285.734287
 21
-982.850722
 31
1609.199293
210
0.0
220
-0.9659258262890682
230
-0.2588190451025206
  0
LINE
  5
EE8EDDBCEA3F2CA4
100
AcDbEntity
  8
GRAM
100
AcDbLine
 10
248.490173
 20
-984.800449
 30
1616.475772
 11
248.490173
 21
-985.012332
 31
1617.266534
210
0.0
220
-0.9659258262890682
230
-0.2588190451025206
  0
LINE
  5
EE8EDDBCEA3F2CA5
100
AcDbEntity
  8
GRAM
100
AcDbLine
 10
247.490173
 20
-984.800449
 30
1616.475772
 11
247.490173
 21
-985.012332
 31
1617.266534
210
0.0
220
-0.9659258262890682
230
-0.2588190451025206
  0
LINE
  5
EE8EDDBCEA3F2CA6
100
AcDbEntity
  8
GRAM
100
AcDbLine
 10
247.124148
 20
-984.446895
 30
1615.156293
 11
246.305491
 21
-984.446895
 31
1615.156293
210
0.0
220
-0.9659258262890682
230
-0.2588190451025206
  0
LINE
  5
EE8EDDBCEA3F2CA7
100
AcDbEntity
  8
GRAM
100
AcDbLine
 10
247.124148
 20
-984.705714
 30
1616.122218
 11
246.305491
 21
-984.705714
 31
1616.122218
210
0.0
220
-0.9659258262890682
230
-0.2588190451025206
  0
LINE
  5
EE8EDDBCEA3F2CA8
100
AcDbEntity
  8
GRAM
100
AcDbLine
 10
246.305491
 20
-984.257025
 30
1614.447689
 11
246.305491
 21
-984.446895
 31
1615.156293
210
0.0
220
-0.9659258262890682
230
-0.2588190451025206
  0
LINE
  5
EE8EDDBCEA3F2CA9
100
AcDbEntity
  8
GRAM
100
AcDbLine
 10
246.305491
 20
-984.705714
 30
1616.122218
 11
246.305491
 21
-984.895584
 31
1616.830822
210
0.0
220
-0.9659258262890682
230
-0.2588190451025206
  0
ARC
  5
EE8EDDBCEA3F2CAA
100
AcDbEntity
  8
GRAM
100
AcDbCircle
 10
247.990173
 20
1815.414782
 30
532.869471
 40
1.0
210
0.0
220
-0.9659258262890682
230
-0.2588190451025206
100
AcDbArc
 50
120.0
 51
150.0
  0
ARC
  5
EE8EDDBCEA3F2CAB
100
AcDbEntity
  8
GRAM
100
AcDbCircle
 10
247.990173
 20
1815.414782
 30
532.869471
 40
1.0
210
0.0
220
-0.9659258262890682
230
-0.2588190451025206
100
AcDbArc
 50
210.0
 51
60.0
  0
LINE
  5
EE8EDDBCEA3F2CAE
100
AcDbEntity
  8
GRAM
100
AcDbLine
 10
249.223774
 20
-985.012332
 30
1617.266534
 11
248.490173
 21
-985.012332
 31
1617.266534
210
0.0
220
-0.9659258262890682
230
-0.2588190451025206
  0
LINE
  5
EE8EDDBCEA3F2CAF
100
AcDbEntity
  8
GRAM
100
AcDbLine
 10
247.490173
 20
-985.012332
 30
1617.266534
 11
246.756573
 21
-985.012332
 31
1617.266534
210
0.0
220
-0.9659258262890682
230
-0.2588190451025206
  0
ARC
  5
EE8EDDBCEA3F2CB2
100
AcDbEntity
  8
GRAM
100
AcDbCircle
 10
254.990173
 20
1808.414782
 30
532.869471
 40
1.0
210
0.0
220
-0.9659258262890682
230
-0.2588190451025206
100
AcDbArc
 50
270.0
 51
0.0
  0
ARC
  5
EE8EDDBCEA3F2CB6
100
AcDbEntity
  8
GRAM
100
AcDbCircle
 10
271.990173
 20
1808.414782
 30
532.869471
 40
1.0
210
0.0
220
-0.9659258262890682
230
-0.2588190451025206
100
AcDbArc
 50
180.0
 51
270.0
  0
LINE
  5
EE8EDDBCEA3F2CB7
100
AcDbEntity
  8
GRAM
100
AcDbLine
 10
273.302607
 20
-985.590984
 30
1619.426089
 11
272.192302
 21
-985.303615
 31
1618.353616
210
0.0
220
-0.9659258262890682
230
-0.2588190451025206
  0
LINE
  5
EE8EDDBCEA3F2CB8
100
AcDbEntity
  8
GRAM
100
AcDbLine
 10
272.192302
 20
-985.303615
 30
1618.353616
 11
271.38423
 21
-985.51276
 31
1619.134154
210
0.0
220
-0.9659258262890682
230
-0.2588190451025206
  0
LINE
  5
EE8EDDBCEA3F2CBB
100
AcDbEntity
  8
GRAM
100
AcDbLine
 10
279.541219
 20
-983.883437
 30
1613.053438
 11
274.395676
 21
-985.192163
 31
1617.937669
210
0.0
220
-0.9659258262890682
230
-0.2588190451025206
  0
LINE
  5
EE8EDDBCEA3F2CBD
100
AcDbEntity
  8
GRAM
100
AcDbLine
 10
281.344975
 20
-984.350283
 30
1614.795732
 11
280.934852
 21
-984.244136
 31
1614.399584
210
0.0
220
-0.9659258262890682
230
-0.2588190451025206
  0
LINE
  5
EE8EDDBCEA3F2CBE
100
AcDbEntity
  8
GRAM
100
AcDbLine
 10
280.934852
 20
-984.244136
 30
1614.399584
 11
280.385
 21
-984.101823
 31
1613.868468
210
0.0
220
-0.9659258262890682
230
-0.2588190451025206
  0
LINE
  5
EE8EDDBCEA3F2CBF
100
AcDbEntity
  8
GRAM
100
AcDbLine
 10
279.960731
 20
-983.992015
 30
1613.458655
 11
279.541219
 21
-983.883437
 31
1613.053438
210
0.0
220
-0.9659258262890682
230
-0.2588190451025206
  0
LINE
  5
EE8EDDBCEA3F2CC0
100
AcDbEntity
  8
GRAM
100
AcDbLine
 10
280.385
 20
-984.101823
 30
1613.868468
 11
279.960731
 21
-983.992015
 31
1613.458655
210
0.0
220
-0.9659258262890682
230
-0.2588190451025206
  0
LINE
  5
EE8EDDBCEA3F2CC1
100
AcDbEntity
  8
GRAM
100
AcDbLine
 10
281.771086
 20
-984.460569
 30
1615.207324
 11
281.344975
 21
-984.350283
 31
1614.795732
210
0.0
220
-0.9659258262890682
230
-0.2588190451025206
  0
LINE
  5
EE8EDDBCEA3F2CC2
100
AcDbEntity
  8
GRAM
100
AcDbLine
 10
274.388283
 20
-985.541924
 30
1619.242995
 11
275.067666
 21
-985.366087
 31
1618.586762
210
0.0
220
-0.9659258262890682
230
-0.2588190451025206
  0
LINE
  5
EE8EDDBCEA3F2CC4
100
AcDbEntity
  8
GRAM
100
AcDbLine
 10
275.067666
 20
-985.366087
 30
1618.586762
 11
274.395676
 21
-985.192163
 31
1617.937669
210
0.0
220
-0.9659258262890682
230
-0.2588190451025206
  0
LINE
  5
EE8EDDBCEA3F2CC7
100
AcDbEntity
  8
GRAM
100
AcDbLine
 10
281.361151
 20
-984.353414
 30
1614.807417
 11
283.93628
 21
-983.680483
 31
1612.296005
210
0.0
220
-0.9659258262890682
230
-0.2588190451025206
  0
LINE
  5
EE8EDDBCEA3F2CC8
100
AcDbEntity
  8
GRAM
100
AcDbLine
 10
279.958702
 20
-983.992545
 30
1613.460635
 11
282.574155
 21
-983.309077
 31
1610.909896
210
0.0
220
-0.9659258262890682
230
-0.2588190451025206
  0
ARC
  5
EE8EDDBCEA3F2CCA
100
AcDbEntity
  8
GRAM
100
AcDbCircle
 10
240.990173
 20
1808.414782
 30
532.869471
 40
1.0
210
0.0
220
-0.9659258262890682
230
-0.2588190451025206
100
AcDbArc
 50
180.0
 51
270.0
  0
LINE
  5
EE8EDDBCEA3F2CCD
100
AcDbEntity
  8
GRAM
100
AcDbLine
 10
240.990173
 20
-982.505752
 30
1607.911849
 11
254.990173
 21
-982.505752
 31
1607.911849
210
0.0
220
-0.9659258262890682
230
-0.2588190451025206
  0
LINE
  5
EE8EDDBCEA3F2CD0
100
AcDbEntity
  8
GRAM
100
AcDbLine
 10
243.990173
 20
-984.576305
 30
1615.639256
 11
246.305491
 21
-984.257025
 31
1614.447689
210
0.0
220
-0.9659258262890682
230
-0.2588190451025206
  0
LINE
  5
EE8EDDBCEA3F2CD1
100
AcDbEntity
  8
GRAM
100
AcDbLine
 10
246.305491
 20
-984.895584
 30
1616.830822
 11
243.990173
 21
-984.576305
 31
1615.639256
210
0.0
220
-0.9659258262890682
230
-0.2588190451025206
  0
ARC
  5
EE8EDDBCEA3F2CE3
100
AcDbEntity
  8
GRAM
100
AcDbCircle
 10
285.990173
 20
1808.414782
 30
532.869471
 40
1.0
210
0.0
220
-0.9659258262890682
230
-0.2588190451025206
100
AcDbArc
 50
270.0
 51
360.0
  0
LINE
  5
EE8EDDBCEA3F2CCC
100
AcDbEntity
  8
GRAM
100
AcDbLine
 10
216.477669
 20
-979.554634
 30
1596.898127
 11
216.477669
 21
-979.561585
 31
1596.924067
210
0.0
220
-0.9659258262890682
230
-0.2588190451025206
  0
LINE
  5
EE8EDDBCEA3F2C96
100
AcDbEntity
  8
GRAM
100
AcDbLine
 10
285.990173
 20
-986.646857
 30
1623.366662
 11
271.990173
 21
-986.646857
 31
1623.366662
210
0.0
220
-0.9659258262890682
230
-0.2588190451025206
  0
LINE
  5
EE8EDDBCEA3F2C9C
100
AcDbEntity
  8
GRAM
100
AcDbLine
 10
258.067846
 20
-990.006349
 30
1635.904456
 11
260.742441
 21
-990.006349
 31
1635.904456
210
0.0
220
-0.9659258262890682
230
-0.2588190451025206
  0
LINE
  5
EE8EDDBCEA3F2C9D
100
AcDbEntity
  8
GRAM
100
AcDbLine
 10
263.244525
 20
-988.971072
 30
1632.040752
 11
266.123331
 21
-988.971072
 31
1632.040752
210
0.0
220
-0.9659258262890682
230
-0.2588190451025206
  0
LINE
  5
EE8EDDBCEA3F2C9E
100
AcDbEntity
  8
GRAM
100
AcDbLine
 10
263.244525
 20
-988.971072
 30
1632.040752
 11
263.820286
 21
-988.971072
 31
1632.040752
210
0.0
220
-0.9659258262890682
230
-0.2588190451025206
  0
LINE
  5
EE8EDDBCEA3F2C9F
100
AcDbEntity
  8
GRAM
100
AcDbLine
 10
275.706066
 20
-988.971072
 30
1632.040752
 11
278.206066
 21
-988.971072
 31
1632.040752
210
0.0
220
-0.9659258262890682
230
-0.2588190451025206
  0
LINE
  5
EE8EDDBCEA3F2CA0
100
AcDbEntity
  8
GRAM
100
AcDbLine
 10
281.93924
 20
-988.971072
 30
1632.040752
 11
284.43924
 21
-988.971072
 31
1632.040752
210
0.0
220
-0.9659258262890682
230
-0.2588190451025206
  0
ARC
  5
EE8EDDBCEA3F2CA2
100
AcDbEntity
  8
GRAM
100
AcDbCircle
 10
273.834578
 20
1818.72892
 30
532.869471
 40
1.991896
210
0.0
220
-0.9659258262890682
230
-0.2588190451025206
100
AcDbArc
 50
38.575901
 51
122.901302
  0
ARC
  5
EE8EDDBCEA3F2CB3
100
AcDbEntity
  8
GRAM
100
AcDbCircle
 10
254.990173
 20
1822.414782
 30
532.869471
 40
1.0
210
0.0
220
-0.9659258262890682
230
-0.2588190451025206
100
AcDbArc
 50
0.0
 51
90.0
  0
ARC
  5
EE8EDDBCEA3F2CBA
100
AcDbEntity
  8
GRAM
100
AcDbCircle
 10
271.990173
 20
1822.414782
 30
532.869471
 40
1.0
210
0.0
220
-0.9659258262890682
230
-0.2588190451025206
100
AcDbArc
 50
90.0
 51
180.0
  0
LINE
  5
EE8EDDBCEA3F2CC5
100
AcDbEntity
  8
GRAM
100
AcDbLine
 10
276.625543
 20
-985.769295
 30
1620.091555
 11
275.982089
 21
-985.602757
 31
1619.470026
210
0.0
220
-0.9659258262890682
230
-0.2588190451025206
  0
LINE
  5
EE8EDDBCEA3F2CC6
100
AcDbEntity
  8
GRAM
100
AcDbLine
 10
275.391808
 20
-985.755533
 30
1620.040194
 11
275.982089
 21
-985.602757
 31
1619.470026
210
0.0
220
-0.9659258262890682
230
-0.2588190451025206
  0
ARC
  5
EE8EDDBCEA3F2CCB
100
AcDbEntity
  8
GRAM
100
AcDbCircle
 10
240.990173
 20
1822.414782
 30
532.869471
 40
1.0
210
0.0
220
-0.9659258262890682
230
-0.2588190451025206
100
AcDbArc
 50
90.0
 51
180.0
  0
LINE
  5
EE8EDDBCEA3F2CCE
100
AcDbEntity
  8
GRAM
100
AcDbLine
 10
240.990173
 20
-986.646857
 30
1623.366662
 11
254.990173
 21
-986.646857
 31
1623.366662
210
0.0
220
-0.9659258262890682
230
-0.2588190451025206
  0
ARC
  5
EE8EDDBCEA3F2CE4
100
AcDbEntity
  8
GRAM
100
AcDbCircle
 10
285.990173
 20
1822.414782
 30
532.869471
 40
1.0
210
0.0
220
-0.9659258262890682
230
-0.2588190451025206
100
AcDbArc
 50
360.0
 51
90.0
  0
CIRCLE
  5
EE8EDDBCEA3F2C99
100
AcDbEntity
  8
GRAM
100
AcDbCircle
 10
283.091393
 20
1819.516001
 30
532.869471
 40
1.5
210
0.0
220
-0.9659258262890682
230
-0.2588190451025206
  0
ARC
  5
EE8EDDBCEA3F2CA1
100
AcDbEntity
  8
GRAM
100
AcDbCircle
 10
273.739548
 20
1818.63389
 30
532.869471
 40
0.826289
210
0.0
220
-0.9659258262890682
230
-0.2588190451025206
100
AcDbArc
 50
38.268298
 51
121.924387
  0
CIRCLE
  5
EE8EDDBCEA3F2CA3
100
AcDbEntity
  8
GRAM
100
AcDbCircle
 10
252.091393
 20
1819.516001
 30
532.869471
 40
1.5
210
0.0
220
-0.9659258262890682
230
-0.2588190451025206
  0
LINE
  5
EE8EDDBCEA3F2CAC
100
AcDbEntity
  8
GRAM
100
AcDbLine
 10
247.990173
 20
-985.611581
 30
1619.502959
 11
249.223774
 21
-985.012332
 31
1617.266534
210
0.0
220
-0.9659258262890682
230
-0.2588190451025206
  0
LINE
  5
EE8EDDBCEA3F2CAD
100
AcDbEntity
  8
GRAM
100
AcDbLine
 10
246.756573
 20
-985.012332
 30
1617.266534
 11
247.990173
 21
-985.611581
 31
1619.502959
210
0.0
220
-0.9659258262890682
230
-0.2588190451025206
  0
LINE
  5
EE8EDDBCEA3F2CB0
100
AcDbEntity
  8
GRAM
100
AcDbLine
 10
255.990173
 20
-986.388038
 30
1622.400736
 11
255.990173
 21
-982.764571
 31
1608.877775
210
0.0
220
-0.9659258262890682
230
-0.2588190451025206
  0
LINE
  5
EE8EDDBCEA3F2CB1
100
AcDbEntity
  8
GRAM
100
AcDbLine
 10
255.990173
 20
-986.388038
 30
1622.400736
 11
255.990173
 21
-982.764571
 31
1608.877775
210
0.0
220
-0.9659258262890682
230
-0.2588190451025206
  0
LINE
  5
EE8EDDBCEA3F2CB4
100
AcDbEntity
  8
GRAM
100
AcDbLine
 10
270.990173
 20
-986.388038
 30
1622.400736
 11
270.990173
 21
-982.764571
 31
1608.877775
210
0.0
220
-0.9659258262890682
230
-0.2588190451025206
  0
LINE
  5
EE8EDDBCEA3F2CB5
100
AcDbEntity
  8
GRAM
100
AcDbLine
 10
270.990173
 20
-986.388038
 30
1622.400736
 11
270.990173
 21
-982.764571
 31
1608.877775
210
0.0
220
-0.9659258262890682
230
-0.2588190451025206
  0
LINE
  5
EE8EDDBCEA3F2CB9
100
AcDbEntity
  8
GRAM
100
AcDbLine
 10
272.752593
 20
-985.866919
 30
1620.455892
 11
271.38423
 21
-985.51276
 31
1619.134154
210
0.0
220
-0.9659258262890682
230
-0.2588190451025206
  0
LINE
  5
EE8EDDBCEA3F2CBC
100
AcDbEntity
  8
GRAM
100
AcDbLine
 10
281.771086
 20
-984.460569
 30
1615.207324
 11
276.623054
 21
-985.769928
 31
1620.093918
210
0.0
220
-0.9659258262890682
230
-0.2588190451025206
  0
LINE
  5
EE8EDDBCEA3F2CC3
100
AcDbEntity
  8
GRAM
100
AcDbLine
 10
275.982089
 20
-985.602757
 30
1619.470026
 11
275.067666
 21
-985.366087
 31
1618.586762
210
0.0
220
-0.9659258262890682
230
-0.2588190451025206
  0
LINE
  5
EE8EDDBCEA3F2CC9
100
AcDbEntity
  8
GRAM
100
AcDbLine
 10
239.990173
 20
-986.388038
 30
1622.400736
 11
239.990173
 21
-982.764571
 31
1608.877775
210
0.0
220
-0.9659258262890682
230
-0.2588190451025206
  0
CIRCLE
  5
EE8EDDBCEA3F2CCF
100
AcDbEntity
  8
GRAM
100
AcDbCircle
 10
247.990173
 20
1815.414782
 30
532.869471
 40
4.0
210
0.0
220
-0.9659258262890682
230
-0.2588190451025206
  0
LINE
  5
EE8EDDBCEA3F2CE2
100
AcDbEntity
  8
GRAM
100
AcDbLine
 10
286.990173
 20
-986.388038
 30
1622.400736
 11
286.990173
 21
-982.764571
 31
1608.877775
210
0.0
220
-0.9659258262890682
230
-0.2588190451025206
  0
LINE
  5
EE8EDDBCEA3F2CD5
100
AcDbEntity
  8
GRAM
100
AcDbLine
 10
340.5
 20
-982.505752
 30
1607.911849
 11
354.5
 21
-982.505752
 31
1607.911849
210
0.0
220
-0.9659258262890682
230
-0.2588190451025206
  0
ARC
  5
EE8EDDBCEA3F2CD8
100
AcDbEntity
  8
GRAM
100
AcDbCircle
 10
340.5
 20
1808.414782
 30
532.869471
 40
1.0
210
0.0
220
-0.9659258262890682
230
-0.2588190451025206
100
AcDbArc
 50
180.0
 51
270.0
  0
ARC
  5
EE8EDDBCEA3F2CDC
100
AcDbEntity
  8
GRAM
100
AcDbCircle
 10
354.5
 20
1808.414782
 30
532.869471
 40
1.0
210
0.0
220
-0.9659258262890682
230
-0.2588190451025206
100
AcDbArc
 50
270.0
 51
0.0
  0
ARC
  5
EE8EDDBCEA3F2CE0
100
AcDbEntity
  8
GRAM
100
AcDbCircle
 10
316.990173
 20
1808.414782
 30
532.869471
 40
1.0
210
0.0
220
-0.9659258262890682
230
-0.2588190451025206
100
AcDbArc
 50
270.0
 51
0.0
  0
ARC
  5
EE8EDDBCEA3F2CE9
100
AcDbEntity
  8
GRAM
100
AcDbCircle
 10
302.990173
 20
1808.414782
 30
532.869471
 40
1.0
210
0.0
220
-0.9659258262890682
230
-0.2588190451025206
100
AcDbArc
 50
180.0
 51
270.0
  0
ARC
  5
EE8EDDBCEA3F2CEB
100
AcDbEntity
  8
GRAM
100
AcDbCircle
 10
309.990858
 20
1812.414782
 30
532.869471
 40
2.5
210
0.0
220
-0.9659258262890682
230
-0.2588190451025206
100
AcDbArc
 50
120.0
 51
60.0
  0
LINE
  5
EE8EDDBCEA3F2CED
100
AcDbEntity
  8
GRAM
100
AcDbLine
 10
302.990173
 20
-982.505752
 30
1607.911849
 11
316.990173
 21
-982.505752
 31
1607.911849
210
0.0
220
-0.9659258262890682
230
-0.2588190451025206
  0
LINE
  5
EE8EDDBCEA3F2CD2
100
AcDbEntity
  8
GRAM
100
AcDbLine
 10
340.5
 20
-988.718606
 30
1631.098536
 11
354.5
 21
-988.718606
 31
1631.098536
210
0.0
220
-0.9659258262890682
230
-0.2588190451025206
  0
ARC
  5
EE8EDDBCEA3F2CD3
100
AcDbEntity
  8
GRAM
100
AcDbCircle
 10
340.5
 20
1832.419406
 30
532.869471
 40
1.0
210
0.0
220
-0.9659258262890682
230
-0.2588190451025206
100
AcDbArc
 50
180.0
 51
270.0
  0
ARC
  5
EE8EDDBCEA3F2CD4
100
AcDbEntity
  8
GRAM
100
AcDbCircle
 10
354.5
 20
1832.419406
 30
532.869471
 40
1.0
210
0.0
220
-0.9659258262890682
230
-0.2588190451025206
100
AcDbArc
 50
270.0
 51
0.0
  0
LINE
  5
EE8EDDBCEA3F2CD6
100
AcDbEntity
  8
GRAM
100
AcDbLine
 10
340.5
 20
-986.646857
 30
1623.366662
 11
354.5
 21
-986.646857
 31
1623.366662
210
0.0
220
-0.9659258262890682
230
-0.2588190451025206
  0
ARC
  5
EE8EDDBCEA3F2CD9
100
AcDbEntity
  8
GRAM
100
AcDbCircle
 10
340.5
 20
1822.414782
 30
532.869471
 40
1.0
210
0.0
220
-0.9659258262890682
230
-0.2588190451025206
100
AcDbArc
 50
90.0
 51
180.0
  0
ARC
  5
EE8EDDBCEA3F2CDD
100
AcDbEntity
  8
GRAM
100
AcDbCircle
 10
354.5
 20
1822.414782
 30
532.869471
 40
1.0
210
0.0
220
-0.9659258262890682
230
-0.2588190451025206
100
AcDbArc
 50
0.0
 51
90.0
  0
ARC
  5
EE8EDDBCEA3F2CDE
100
AcDbEntity
  8
GRAM
100
AcDbCircle
 10
317.000173
 20
1830.419406
 30
532.869471
 40
1.0
210
0.0
220
-0.9659258262890682
230
-0.2588190451025206
100
AcDbArc
 50
270.0
 51
0.0
  0
ARC
  5
EE8EDDBCEA3F2CE1
100
AcDbEntity
  8
GRAM
100
AcDbCircle
 10
316.990173
 20
1822.414782
 30
532.869471
 40
1.0
210
0.0
220
-0.9659258262890682
230
-0.2588190451025206
100
AcDbArc
 50
0.0
 51
90.0
  0
ARC
  5
EE8EDDBCEA3F2CE7
100
AcDbEntity
  8
GRAM
100
AcDbCircle
 10
309.990858
 20
1819.664782
 30
532.869471
 40
1.25
210
0.0
220
-0.9659258262890682
230
-0.2588190451025206
100
AcDbArc
 50
0.0
 51
180.0
  0
ARC
  5
EE8EDDBCEA3F2CEA
100
AcDbEntity
  8
GRAM
100
AcDbCircle
 10
302.990173
 20
1822.414782
 30
532.869471
 40
1.0
210
0.0
220
-0.9659258262890682
230
-0.2588190451025206
100
AcDbArc
 50
90.0
 51
180.0
  0
LINE
  5
EE8EDDBCEA3F2CEE
100
AcDbEntity
  8
GRAM
100
AcDbLine
 10
302.990173
 20
-986.646857
 30
1623.366662
 11
316.990173
 21
-986.646857
 31
1623.366662
210
0.0
220
-0.9659258262890682
230
-0.2588190451025206
  0
LINE
  5
EE8EDDBCEA3F2CD7
100
AcDbEntity
  8
GRAM
100
AcDbLine
 10
339.5
 20
-986.388038
 30
1622.400736
 11
339.5
 21
-982.764571
 31
1608.877775
210
0.0
220
-0.9659258262890682
230
-0.2588190451025206
  0
INSERT
  5
EE8EDDBCEA3F2CDA
100
AcDbEntity
  8
GRAM
100
AcDbBlockReference
  2
PIL
 10
347.5
 20
1810.132683
 30
532.869471
 41
1.410947
 42
1.410947
 43
1.410947
 50
90.0
210
0.0
220
-0.9659258262890682
230
-0.2588190451025206
  0
LINE
  5
EE8EDDBCEA3F2CDB
100
AcDbEntity
  8
GRAM
100
AcDbLine
 10
355.5
 20
-986.388038
 30
1622.400736
 11
355.5
 21
-982.764571
 31
1608.877775
210
0.0
220
-0.9659258262890682
230
-0.2588190451025206
  0
LINE
  5
EE8EDDBCEA3F2CDF
100
AcDbEntity
  8
GRAM
100
AcDbLine
 10
317.990173
 20
-986.388038
 30
1622.400736
 11
317.990173
 21
-982.764571
 31
1608.877775
210
0.0
220
-0.9659258262890682
230
-0.2588190451025206
  0
LINE
  5
EE8EDDBCEA3F2CE5
100
AcDbEntity
  8
GRAM
100
AcDbLine
 10
311.240858
 20
-985.676286
 30
1619.74444
 11
311.240858
 21
-984.360207
 31
1614.832769
210
0.0
220
-0.9659258262890682
230
-0.2588190451025206
  0
LINE
  5
EE8EDDBCEA3F2CE6
100
AcDbEntity
  8
GRAM
100
AcDbLine
 10
308.740858
 20
-985.676286
 30
1619.74444
 11
308.740858
 21
-984.360207
 31
1614.832769
210
0.0
220
-0.9659258262890682
230
-0.2588190451025206
  0
LINE
  5
EE8EDDBCEA3F2CE8
100
AcDbEntity
  8
GRAM
100
AcDbLine
 10
301.990173
 20
-986.388038
 30
1622.400736
 11
301.990173
 21
-982.764571
 31
1608.877775
210
0.0
220
-0.9659258262890682
230
-0.2588190451025206
  0
CIRCLE
  5
EE8EDDBCEA3F2CEC
100
AcDbEntity
  8
GRAM
100
AcDbCircle
 10
314.091393
 20
1819.516001
 30
532.869471
 40
1.5
210
0.0
220
-0.9659258262890682
230
-0.2588190451025206
  0
ARC
  5
EE8EDDBCEA3F2CEF
100
AcDbEntity
  8
GRAM
100
AcDbCircle
 10
404.999827
 20
1805.414782
 30
532.869471
 40
8.0
210
0.0
220
-0.9659258262890682
230
-0.2588190451025206
100
AcDbArc
 50
270.0
 51
0.0
  0
ARC
  5
EE8EDDBCEA3F2CF0
100
AcDbEntity
  8
GRAM
100
AcDbCircle
 10
404.999827
 20
1805.414782
 30
532.869471
 40
5.0
210
0.0
220
-0.9659258262890682
230
-0.2588190451025206
100
AcDbArc
 50
270.0
 51
0.0
  0
ARC
  5
EE8EDDBCEA3F2CF7
100
AcDbEntity
  8
GRAM
100
AcDbCircle
 10
395.999827
 20
1811.914782
 30
532.869471
 40
2.0
210
0.0
220
-0.9659258262890681
230
-0.2588190451025208
100
AcDbArc
 50
270.0
 51
0.0
  0
ARC
  5
EE8EDDBCEA3F2CF8
100
AcDbEntity
  8
GRAM
100
AcDbCircle
 10
393.999827
 20
1813.914782
 30
532.869471
 40
2.0
210
0.0
220
-0.9659258262890681
230
-0.2588190451025208
100
AcDbArc
 50
270.0
 51
360.0
  0
ARC
  5
EE8EDDBCEA3F2CF9
100
AcDbEntity
  8
GRAM
100
AcDbCircle
 10
376.999827
 20
1813.914782
 30
532.869471
 40
2.0
210
0.0
220
-0.9659258262890681
230
-0.2588190451025208
100
AcDbArc
 50
180.0
 51
270.0
  0
ARC
  5
EE8EDDBCEA3F2CFA
100
AcDbEntity
  8
GRAM
100
AcDbCircle
 10
374.999827
 20
1811.914782
 30
532.869471
 40
2.0
210
0.0
220
-0.9659258262890681
230
-0.2588190451025208
100
AcDbArc
 50
180.0
 51
270.0
  0
LINE
  5
EE8EDDBCEA3F2CFB
100
AcDbEntity
  8
GRAM
100
AcDbLine
 10
374.999827
 20
-983.1528
 30
1610.326664
 11
395.999827
 21
-983.1528
 31
1610.326664
210
0.0
220
-0.9659258262890681
230
-0.2588190451025208
  0
LINE
  5
EE8EDDBCEA3F2CFC
100
AcDbEntity
  8
GRAM
100
AcDbLine
 10
376.999827
 20
-983.670438
 30
1612.258515
 11
393.999827
 21
-983.670438
 31
1612.258515
210
0.0
220
-0.9659258262890681
230
-0.2588190451025208
  0
ARC
  5
EE8EDDBCEA3F2CF1
100
AcDbEntity
  8
GRAM
100
AcDbCircle
 10
395.999827
 20
1832.914782
 30
532.869471
 40
2.0
210
0.0
220
-0.9659258262890681
230
-0.2588190451025208
100
AcDbArc
 50
0.0
 51
90.0
  0
ARC
  5
EE8EDDBCEA3F2CF2
100
AcDbEntity
  8
GRAM
100
AcDbCircle
 10
393.999827
 20
1830.914782
 30
532.869471
 40
2.0
210
0.0
220
-0.9659258262890681
230
-0.2588190451025208
100
AcDbArc
 50
360.0
 51
90.0
  0
ARC
  5
EE8EDDBCEA3F2CF3
100
AcDbEntity
  8
GRAM
100
AcDbCircle
 10
376.999827
 20
1830.914782
 30
532.869471
 40
2.0
210
0.0
220
-0.9659258262890681
230
-0.2588190451025208
100
AcDbArc
 50
90.0
 51
180.0
  0
ARC
  5
EE8EDDBCEA3F2CF4
100
AcDbEntity
  8
GRAM
100
AcDbCircle
 10
374.999827
 20
1832.914782
 30
532.869471
 40
2.0
210
0.0
220
-0.9659258262890681
230
-0.2588190451025208
100
AcDbArc
 50
90.0
 51
180.0
  0
LINE
  5
EE8EDDBCEA3F2CF5
100
AcDbEntity
  8
GRAM
100
AcDbLine
 10
374.999827
 20
-989.623276
 30
1634.474809
 11
395.999827
 21
-989.623276
 31
1634.474809
210
0.0
220
-0.9659258262890681
230
-0.2588190451025208
  0
LINE
  5
EE8EDDBCEA3F2CF6
100
AcDbEntity
  8
GRAM
100
AcDbLine
 10
376.999827
 20
-989.105638
 30
1632.542958
 11
393.999827
 21
-989.105638
 31
1632.542958
210
0.0
220
-0.9659258262890681
230
-0.2588190451025208
  0
CIRCLE
  5
EE8EDDBCEA3F2D03
100
AcDbEntity
  8
GRAM
100
AcDbCircle
 10
385.499827
 20
1822.414782
 30
532.869471
 40
10.503657
210
0.0
220
-0.9659258262890681
230
-0.2588190451025208
  0
CIRCLE
  5
EE8EDDBCEA3F2D04
100
AcDbEntity
  8
GRAM
100
AcDbCircle
 10
385.499827
 20
1822.414782
 30
532.869471
 40
8.503657
210
0.0
220
-0.9659258262890681
230
-0.2588190451025208
  0
LINE
  5
EE8EDDBCEA3F2CFF
100
AcDbEntity
  8
GRAM
100
AcDbLine
 10
374.999827
 20
-988.588
 30
1630.611106
 11
374.999827
 21
-984.188076
 31
1614.190367
210
0.0
220
-0.9659258262890681
230
-0.2588190451025208
  0
LINE
  5
EE8EDDBCEA3F2D00
100
AcDbEntity
  8
GRAM
100
AcDbLine
 10
374.999827
 20
-984.188076
 30
1614.190367
 11
374.999827
 21
-988.588
 31
1630.611106
210
0.0
220
-0.9659258262890681
230
-0.2588190451025208
  0
LINE
  5
EE8EDDBCEA3F2D01
100
AcDbEntity
  8
GRAM
100
AcDbLine
 10
372.999827
 20
-983.670438
 30
1612.258515
 11
372.999827
 21
-989.105638
 31
1632.542958
210
0.0
220
-0.9659258262890681
230
-0.2588190451025208
  0
LINE
  5
EE8EDDBCEA3F2D02
100
AcDbEntity
  8
GRAM
100
AcDbLine
 10
372.999827
 20
-983.670438
 30
1612.258515
 11
372.999827
 21
-989.105638
 31
1632.542958
210
0.0
220
-0.9659258262890681
230
-0.2588190451025208
  0
LINE
  5
EE8EDDBCEA3F2CFD
100
AcDbEntity
  8
GRAM
100
AcDbLine
 10
395.999827
 20
-988.588
 30
1630.611106
 11
395.999827
 21
-984.188076
 31
1614.190367
210
0.0
220
-0.9659258262890681
230
-0.2588190451025208
  0
LINE
  5
EE8EDDBCEA3F2CFE
100
AcDbEntity
  8
GRAM
100
AcDbLine
 10
397.999827
 20
-989.105638
 30
1632.542958
 11
397.999827
 21
-983.670438
 31
1612.258515
210
0.0
220
-0.9659258262890681
230
-0.2588190451025208
  0
INSERT
  5
EE8EDDBCEA3F2D6F
100
AcDbEntity
  8
GRAM
100
AcDbBlockReference
  2
GRAMSK
 10
743.0
 20
1943.414782
 30
532.869471
210
0.0
220
-0.9659258262890684
230
-0.2588190451025205
  0
LINE
  5
EE8EDDBCEA3F2D52
100
AcDbEntity
  8
GRAM
100
AcDbLine
 10
136.000173
 20
-992.859711
 30
1646.553349
 11
317.000173
 21
-992.859711
 31
1646.553349
210
0.0
220
-0.9659258262890682
230
-0.2588190451025206
  0
ARC
  5
EE8EDDBCEA3F2D53
100
AcDbEntity
  8
GRAM
100
AcDbCircle
 10
136.000173
 20
1846.419406
 30
532.869471
 40
1.0
210
0.0
220
-0.9659258262890682
230
-0.2588190451025206
100
AcDbArc
 50
90.0
 51
180.0
  0
ARC
  5
EE8EDDBCEA3F2D51
100
AcDbEntity
  8
GRAM
100
AcDbCircle
 10
280.258322
 20
1837.235264
 30
532.869471
 40
4.207442
210
0.0
220
-0.9659258262890682
230
-0.2588190451025206
100
AcDbArc
 50
6.436913
 51
119.193991
  0
CIRCLE
  5
EE8EDDBCEA3F2D54
100
AcDbEntity
  8
GRAM
100
AcDbCircle
 10
247.534595
 20
1843.923235
 30
532.869471
 40
1.5
210
0.0
220
-0.9659258262890682
230
-0.2588190451025206
  0
CIRCLE
  5
EE8EDDBCEA3F2D55
100
AcDbEntity
  8
GRAM
100
AcDbCircle
 10
247.534595
 20
1843.923235
 30
532.869471
 40
0.5
210
0.0
220
-0.9659258262890682
230
-0.2588190451025206
  0
LWPOLYLINE
  5
EE8EDDBCEA3F2D56
100
AcDbEntity
  8
GRAM
100
AcDbPolyline
 90
        4
 70
     0
 43
0.0
 38
532.869471
 10
258.067846
 20
1840.394861
 42
0.054414
 10
257.641565
 20
1841.037041
 42
0.104065
 10
256.779676
 20
1841.718017
 42
0.115836
 10
256.026584
 20
1841.894861
 42
0.115836
210
0.0
220
-0.9659258262890682
230
-0.2588190451025206
  0
LWPOLYLINE
  5
EE8EDDBCEA3F2D5C
100
AcDbEntity
  8
GRAM
100
AcDbPolyline
 90
        5
 70
     0
 43
0.0
 38
532.869471
 10
260.742441
 20
1840.394861
 42
0.01253
 10
260.633585
 20
1840.737857
 42
0.09084
 10
259.562118
 20
1842.637502
 42
0.104065
 10
257.892435
 20
1843.956715
 42
0.115836
 10
256.026584
 20
1844.394861
 42
0.115836
210
0.0
220
-0.9659258262890682
230
-0.2588190451025206
  0
LINE
  5
EE8EDDBCEA3F2D63
100
AcDbEntity
  8
GRAM
100
AcDbLine
 10
258.067846
 20
-991.041625
 30
1639.768159
 11
260.742441
 21
-991.041625
 31
1639.768159
210
0.0
220
-0.9659258262890682
230
-0.2588190451025206
  0
LINE
  5
EE8EDDBCEA3F2D64
100
AcDbEntity
  8
GRAM
100
AcDbLine
 10
270.096138
 20
-992.076901
 30
1643.631862
 11
272.974944
 21
-992.076901
 31
1643.631862
210
0.0
220
-0.9659258262890682
230
-0.2588190451025206
  0
LINE
  5
EE8EDDBCEA3F2D65
100
AcDbEntity
  8
GRAM
100
AcDbLine
 10
270.096138
 20
-992.076901
 30
1643.631862
 11
270.671899
 21
-992.076901
 31
1643.631862
210
0.0
220
-0.9659258262890682
230
-0.2588190451025206
  0
ARC
  5
EE8EDDBCEA3F2D66
100
AcDbEntity
  8
GRAM
100
AcDbCircle
 10
280.066999
 20
1837.088821
 30
532.869471
 40
1.924684
210
0.0
220
-0.9659258262890682
230
-0.2588190451025206
100
AcDbArc
 50
13.405846
 51
165.212157
  0
LINE
  5
EE8EDDBCEA3F2D67
100
AcDbEntity
  8
GRAM
100
AcDbLine
 10
275.706066
 20
-992.076901
 30
1643.631862
 11
278.206066
 21
-992.076901
 31
1643.631862
210
0.0
220
-0.9659258262890682
230
-0.2588190451025206
  0
LINE
  5
EE8EDDBCEA3F2D68
100
AcDbEntity
  8
GRAM
100
AcDbLine
 10
278.206066
 20
-992.076901
 30
1643.631862
 11
278.206066
 21
-991.174499
 31
1640.264054
210
0.0
220
-0.9659258262890682
230
-0.2588190451025206
  0
LINE
  5
EE8EDDBCEA3F2D69
100
AcDbEntity
  8
GRAM
100
AcDbLine
 10
340.5
 20
-992.859711
 30
1646.553349
 11
354.5
 21
-992.859711
 31
1646.553349
210
0.0
220
-0.9659258262890682
230
-0.2588190451025206
  0
ARC
  5
EE8EDDBCEA3F2D6A
100
AcDbEntity
  8
GRAM
100
AcDbCircle
 10
340.5
 20
1846.419406
 30
532.869471
 40
1.0
210
0.0
220
-0.9659258262890682
230
-0.2588190451025206
100
AcDbArc
 50
90.0
 51
180.0
  0
ARC
  5
EE8EDDBCEA3F2D6B
100
AcDbEntity
  8
GRAM
100
AcDbCircle
 10
354.5
 20
1846.419406
 30
532.869471
 40
1.0
210
0.0
220
-0.9659258262890682
230
-0.2588190451025206
100
AcDbArc
 50
0.0
 51
90.0
  0
ARC
  5
EE8EDDBCEA3F2D6C
100
AcDbEntity
  8
GRAM
100
AcDbCircle
 10
317.000173
 20
1846.419406
 30
532.869471
 40
1.0
210
0.0
220
-0.9659258262890682
230
-0.2588190451025206
100
AcDbArc
 50
0.0
 51
90.0
  0
ARC
  5
EE8EDDBCEA3F2D6D
100
AcDbEntity
  8
GRAM
100
AcDbCircle
 10
404.999827
 20
1849.414782
 30
532.869471
 40
8.0
210
0.0
220
-0.9659258262890682
230
-0.2588190451025206
100
AcDbArc
 50
0.0
 51
90.0
  0
ARC
  5
EE8EDDBCEA3F2D6E
100
AcDbEntity
  8
GRAM
100
AcDbCircle
 10
404.999827
 20
1849.414782
 30
532.869471
 40
5.0
210
0.0
220
-0.9659258262890682
230
-0.2588190451025206
100
AcDbArc
 50
0.0
 51
90.0
  0
INSERT
  5
EE8EDDBCEA3F2D72
100
AcDbEntity
  8
350
100
AcDbBlockReference
  2
E3
 10
683.5
 20
0.0
 30
1879.5
  0
3DFACE
  5
EE8EDDBCEA3F2C56
100
AcDbEntity
  8
GRAM
100
AcDbFace
 10
720.0
 20
-925.0
 30
2215.0
 11
780.0
 21
-925.0
 31
2215.0
 12
780.0
 22
0.0
 32
2215.0
 13
720.0
 23
0.0
 33
2215.0
  0
ENDSEC
  0
SECTION
  2
OBJECTS
  0
DICTIONARY
  5
DD1DBB79D47E5D17
100
AcDbDictionary
  3
ACAD_GROUP
350
DD1DBB79D47E5D18
  3
ACAD_MLINESTYLE
350
DD1DBB79D47E5D25
  3
ACDBVARIABLEDICTIONARY
350
DD1DBB79D47E5D45
  0
DICTIONARY
  5
DD1DBB79D47E5D18
102
{ACAD_REACTORS
330
DD1DBB79D47E5D17
102
}
100
AcDbDictionary
  0
DICTIONARY
  5
DD1DBB79D47E5D25
102
{ACAD_REACTORS
330
DD1DBB79D47E5D17
102
}
100
AcDbDictionary
  3
STANDARD
350
DD1DBB79D47E5D26
  0
DICTIONARY
  5
DD1DBB79D47E5D45
102
{ACAD_REACTORS
330
DD1DBB79D47E5D17
102
}
100
AcDbDictionary
  3
DIMADEC
350
DD1DBB79D47E5D46
  0
MLINESTYLE
  5
DD1DBB79D47E5D26
102
{ACAD_REACTORS
330
DD1DBB79D47E5D25
102
}
100
AcDbMlineStyle
  2
STANDARD
 70
     0
  3

 62
   256
 51
90.0
 52
90.0
 71
     2
 49
0.5
 62
   256
  6
BYLAYER
 49
-0.5
 62
   256
  6
BYLAYER
  0
DICTIONARYVAR
  5
DD1DBB79D47E5D46
102
{ACAD_REACTORS
330
DD1DBB79D47E5D45
102
}
100
DictionaryVariables
280
     0
  1
2
  0
ENDSEC
  0
EOF
